  0
SECTION
  2
HEADER
  9
$EXTMIN
 10
-0.102000
 20
-0.098000
  9
$EXTMAX
 10
0.425000
 20
0.890000
  9
$LIMMIN
 10
-0.102000
 20
-0.098000
  9
$LIMMAX
 10
0.425000
 20
0.890000
  9
$FILLMODE
 70
  1
  0
ENDSEC
  0
SECTION
  2
TABLES
  0
TABLE
  2
LTYPE
 70
  1
  0
LTYPE
  2
CONTINUOUS
 70
 64
  3
Solid line
 72
 65
 73
  0
 40
0.0
  0
ENDTAB
  0
TABLE
  2
LAYER
 70
 1
  0
LAYER
  2
0
 70
  0
 62
7
  6
CONTINUOUS
  0
LAYER
  2
gg1
 70
  0
 62
1
  6
CONTINUOUS
  0
ENDTAB
  0
TABLE
  2
STYLE
 70
  1
  0
STYLE
  2
STANDARD
 70
  0
 40
0.0
 41
1.0
 50
0.0
 71
  0
 42
0.2
  3
txt
  4

  0
ENDTAB
  0
ENDSEC
  0
SECTION
  2
BLOCKS
  0
BLOCK
  8
0
  2
D10
 70
64
 10
0.0
 20
0.0
  3
D10
  0
CIRCLE
  8
0
 10
0.000000
 20
0.000000
 40
0.005000
 0
ENDBLK
  8
0
  0
BLOCK
  8
0
  2
D11
 70
64
 10
0.0
 20
0.0
  3
D11
  0
CIRCLE
  8
0
 10
0.000000
 20
0.000000
 40
0.003000
 0
ENDBLK
  8
0
  0
BLOCK
  8
0
  2
D12
 70
64
 10
0.0
 20
0.0
  3
D12
  0
CIRCLE
  8
0
 10
0.000000
 20
0.000000
 40
0.002500
 0
ENDBLK
  8
0
  0
ENDSEC
  0
SECTION
  2
ENTITIES
  0
POLYLINE
  8
gg1
 62
1
 40
0.000000
 41
0.000000
 66
  1
  0
VERTEX
  8
gg1
 10
0.420000
 20
-0.085000
  0
VERTEX
  8
gg1
 10
0.420000
 20
-0.015000
  0
SEQEND
  8
gg1
  0
POLYLINE
  8
gg1
 62
1
 40
0.000000
 41
0.000000
 66
  1
  0
VERTEX
  8
gg1
 10
0.000000
 20
-0.085000
  0
VERTEX
  8
gg1
 10
0.000000
 20
-0.015000
  0
SEQEND
  8
gg1
  0
POLYLINE
  8
gg1
 62
1
 40
0.000000
 41
0.000000
 66
  1
  0
VERTEX
  8
gg1
 10
0.349200
 20
-0.075000
  0
VERTEX
  8
gg1
 10
0.420000
 20
-0.075000
  0
SEQEND
  8
gg1
  0
POLYLINE
  8
gg1
 62
1
 40
0.000000
 41
0.000000
 66
  1
  0
VERTEX
  8
gg1
 10
0.000000
 20
-0.075000
  0
VERTEX
  8
gg1
 10
0.059000
 20
-0.075000
  0
SEQEND
  8
gg1
  0
POLYLINE
  8
gg1
 62
1
 40
0.000000
 41
0.000000
 66
  1
  0
VERTEX
  8
gg1
 10
0.370000
 20
-0.058300
  0
VERTEX
  8
gg1
 10
0.420000
 20
-0.075000
  0
SEQEND
  8
gg1
  0
POLYLINE
  8
gg1
 62
1
 40
0.000000
 41
0.000000
 66
  1
  0
VERTEX
  8
gg1
 10
0.370000
 20
-0.091700
  0
VERTEX
  8
gg1
 10
0.420000
 20
-0.075000
  0
SEQEND
  8
gg1
  0
POLYLINE
  8
gg1
 62
1
 40
0.000000
 41
0.000000
 66
  1
  0
VERTEX
  8
gg1
 10
0.000000
 20
-0.075000
  0
VERTEX
  8
gg1
 10
0.050000
 20
-0.091700
  0
SEQEND
  8
gg1
  0
POLYLINE
  8
gg1
 62
1
 40
0.000000
 41
0.000000
 66
  1
  0
VERTEX
  8
gg1
 10
0.000000
 20
-0.075000
  0
VERTEX
  8
gg1
 10
0.050000
 20
-0.058300
  0
SEQEND
  8
gg1
  0
POLYLINE
  8
gg1
 62
1
 40
0.000000
 41
0.000000
 66
  1
  0
VERTEX
  8
gg1
 10
-0.085000
 20
0.885000
  0
VERTEX
  8
gg1
 10
-0.015000
 20
0.885000
  0
SEQEND
  8
gg1
  0
POLYLINE
  8
gg1
 62
1
 40
0.000000
 41
0.000000
 66
  1
  0
VERTEX
  8
gg1
 10
-0.085000
 20
0.000000
  0
VERTEX
  8
gg1
 10
-0.015000
 20
0.000000
  0
SEQEND
  8
gg1
  0
POLYLINE
  8
gg1
 62
1
 40
0.000000
 41
0.000000
 66
  1
  0
VERTEX
  8
gg1
 10
-0.075000
 20
0.597500
  0
VERTEX
  8
gg1
 10
-0.075000
 20
0.885000
  0
SEQEND
  8
gg1
  0
POLYLINE
  8
gg1
 62
1
 40
0.000000
 41
0.000000
 66
  1
  0
VERTEX
  8
gg1
 10
-0.075000
 20
0.000000
  0
VERTEX
  8
gg1
 10
-0.075000
 20
0.255500
  0
SEQEND
  8
gg1
  0
POLYLINE
  8
gg1
 62
1
 40
0.000000
 41
0.000000
 66
  1
  0
VERTEX
  8
gg1
 10
-0.095000
 20
0.825000
  0
VERTEX
  8
gg1
 10
-0.075000
 20
0.885000
  0
VERTEX
  8
gg1
 10
-0.055000
 20
0.825000
  0
SEQEND
  8
gg1
  0
POLYLINE
  8
gg1
 62
1
 40
0.000000
 41
0.000000
 66
  1
  0
VERTEX
  8
gg1
 10
-0.075000
 20
0.000000
  0
VERTEX
  8
gg1
 10
-0.055000
 20
0.060000
  0
SEQEND
  8
gg1
  0
POLYLINE
  8
gg1
 62
1
 40
0.000000
 41
0.000000
 66
  1
  0
VERTEX
  8
gg1
 10
-0.095000
 20
0.060000
  0
VERTEX
  8
gg1
 10
-0.075000
 20
0.000000
  0
SEQEND
  8
gg1
  0
POLYLINE
  8
gg1
 62
1
 40
0.000000
 41
0.000000
 66
  1
  0
VERTEX
  8
gg1
 10
0.000000
 20
0.000000
  0
VERTEX
  8
gg1
 10
0.420000
 20
0.000000
  0
VERTEX
  8
gg1
 10
0.420000
 20
0.885000
  0
SEQEND
  8
gg1
  0
POLYLINE
  8
gg1
 62
1
 40
0.000000
 41
0.000000
 66
  1
  0
VERTEX
  8
gg1
 10
0.000000
 20
0.885000
  0
VERTEX
  8
gg1
 10
0.420000
 20
0.885000
  0
SEQEND
  8
gg1
  0
POLYLINE
  8
gg1
 62
1
 40
0.000000
 41
0.000000
 66
  1
  0
VERTEX
  8
gg1
 10
0.000000
 20
0.000000
  0
VERTEX
  8
gg1
 10
0.000000
 20
0.885000
  0
SEQEND
  8
gg1
  0
POLYLINE
  8
gg1
 62
1
 40
0.000000
 41
0.000000
 66
  1
  0
VERTEX
  8
gg1
 10
0.100000
 20
-0.095000
  0
VERTEX
  8
gg1
 10
0.100000
 20
-0.045000
  0
VERTEX
  8
gg1
 10
0.075000
 20
-0.070000
  0
VERTEX
  8
gg1
 10
0.108300
 20
-0.070000
  0
SEQEND
  8
gg1
  0
POLYLINE
  8
gg1
 62
1
 40
0.000000
 41
0.000000
 66
  1
  0
VERTEX
  8
gg1
 10
0.158300
 20
-0.095000
  0
VERTEX
  8
gg1
 10
0.125000
 20
-0.095000
  0
VERTEX
  8
gg1
 10
0.158300
 20
-0.061700
  0
VERTEX
  8
gg1
 10
0.158300
 20
-0.053300
  0
VERTEX
  8
gg1
 10
0.150000
 20
-0.045000
  0
VERTEX
  8
gg1
 10
0.133300
 20
-0.045000
  0
VERTEX
  8
gg1
 10
0.125000
 20
-0.053300
  0
SEQEND
  8
gg1
  0
POLYLINE
  8
gg1
 62
1
 40
0.000000
 41
0.000000
 66
  1
  0
VERTEX
  8
gg1
 10
0.175000
 20
-0.053300
  0
VERTEX
  8
gg1
 10
0.183300
 20
-0.045000
  0
VERTEX
  8
gg1
 10
0.200000
 20
-0.045000
  0
VERTEX
  8
gg1
 10
0.208300
 20
-0.053300
  0
VERTEX
  8
gg1
 10
0.208300
 20
-0.086700
  0
VERTEX
  8
gg1
 10
0.200000
 20
-0.095000
  0
VERTEX
  8
gg1
 10
0.183300
 20
-0.095000
  0
VERTEX
  8
gg1
 10
0.175000
 20
-0.086700
  0
VERTEX
  8
gg1
 10
0.175000
 20
-0.053300
  0
SEQEND
  8
gg1
  0
POLYLINE
  8
gg1
 62
1
 40
0.000000
 41
0.000000
 66
  1
  0
VERTEX
  8
gg1
 10
0.225000
 20
-0.095000
  0
VERTEX
  8
gg1
 10
0.225000
 20
-0.061700
  0
VERTEX
  8
gg1
 10
0.233300
 20
-0.061700
  0
VERTEX
  8
gg1
 10
0.241600
 20
-0.070000
  0
VERTEX
  8
gg1
 10
0.241600
 20
-0.095000
  0
VERTEX
  8
gg1
 10
0.241600
 20
-0.070000
  0
VERTEX
  8
gg1
 10
0.249900
 20
-0.061700
  0
VERTEX
  8
gg1
 10
0.258300
 20
-0.070000
  0
VERTEX
  8
gg1
 10
0.258300
 20
-0.095000
  0
SEQEND
  8
gg1
  0
POLYLINE
  8
gg1
 62
1
 40
0.000000
 41
0.000000
 66
  1
  0
VERTEX
  8
gg1
 10
0.274900
 20
-0.095000
  0
VERTEX
  8
gg1
 10
0.291600
 20
-0.095000
  0
VERTEX
  8
gg1
 10
0.283300
 20
-0.095000
  0
VERTEX
  8
gg1
 10
0.283300
 20
-0.061700
  0
VERTEX
  8
gg1
 10
0.274900
 20
-0.061700
  0
SEQEND
  8
gg1
  0
POLYLINE
  8
gg1
 62
1
 40
0.000000
 41
0.000000
 66
  1
  0
VERTEX
  8
gg1
 10
0.316600
 20
-0.095000
  0
VERTEX
  8
gg1
 10
0.333200
 20
-0.095000
  0
VERTEX
  8
gg1
 10
0.324900
 20
-0.095000
  0
VERTEX
  8
gg1
 10
0.324900
 20
-0.045000
  0
VERTEX
  8
gg1
 10
0.316600
 20
-0.045000
  0
SEQEND
  8
gg1
  0
POLYLINE
  8
gg1
 62
1
 40
0.000000
 41
0.000000
 66
  1
  0
VERTEX
  8
gg1
 10
-0.089000
 20
0.271500
  0
VERTEX
  8
gg1
 10
-0.099000
 20
0.281500
  0
VERTEX
  8
gg1
 10
-0.099000
 20
0.301500
  0
VERTEX
  8
gg1
 10
-0.089000
 20
0.311500
  0
VERTEX
  8
gg1
 10
-0.079000
 20
0.311500
  0
VERTEX
  8
gg1
 10
-0.069000
 20
0.301500
  0
VERTEX
  8
gg1
 10
-0.059000
 20
0.311500
  0
VERTEX
  8
gg1
 10
-0.049000
 20
0.311500
  0
VERTEX
  8
gg1
 10
-0.039000
 20
0.301500
  0
VERTEX
  8
gg1
 10
-0.039000
 20
0.281500
  0
VERTEX
  8
gg1
 10
-0.049000
 20
0.271500
  0
VERTEX
  8
gg1
 10
-0.059000
 20
0.271500
  0
VERTEX
  8
gg1
 10
-0.069000
 20
0.281500
  0
VERTEX
  8
gg1
 10
-0.079000
 20
0.271500
  0
VERTEX
  8
gg1
 10
-0.089000
 20
0.271500
  0
SEQEND
  8
gg1
  0
POLYLINE
  8
gg1
 62
1
 40
0.000000
 41
0.000000
 66
  1
  0
VERTEX
  8
gg1
 10
-0.069000
 20
0.281500
  0
VERTEX
  8
gg1
 10
-0.069000
 20
0.301500
  0
SEQEND
  8
gg1
  0
POLYLINE
  8
gg1
 62
1
 40
0.000000
 41
0.000000
 66
  1
  0
VERTEX
  8
gg1
 10
-0.089000
 20
0.331500
  0
VERTEX
  8
gg1
 10
-0.099000
 20
0.341500
  0
VERTEX
  8
gg1
 10
-0.099000
 20
0.361500
  0
VERTEX
  8
gg1
 10
-0.089000
 20
0.371500
  0
VERTEX
  8
gg1
 10
-0.079000
 20
0.371500
  0
VERTEX
  8
gg1
 10
-0.069000
 20
0.361500
  0
VERTEX
  8
gg1
 10
-0.059000
 20
0.371500
  0
VERTEX
  8
gg1
 10
-0.049000
 20
0.371500
  0
VERTEX
  8
gg1
 10
-0.039000
 20
0.361500
  0
VERTEX
  8
gg1
 10
-0.039000
 20
0.341500
  0
VERTEX
  8
gg1
 10
-0.049000
 20
0.331500
  0
VERTEX
  8
gg1
 10
-0.059000
 20
0.331500
  0
VERTEX
  8
gg1
 10
-0.069000
 20
0.341500
  0
VERTEX
  8
gg1
 10
-0.079000
 20
0.331500
  0
VERTEX
  8
gg1
 10
-0.089000
 20
0.331500
  0
SEQEND
  8
gg1
  0
POLYLINE
  8
gg1
 62
1
 40
0.000000
 41
0.000000
 66
  1
  0
VERTEX
  8
gg1
 10
-0.069000
 20
0.341500
  0
VERTEX
  8
gg1
 10
-0.069000
 20
0.361500
  0
SEQEND
  8
gg1
  0
POLYLINE
  8
gg1
 62
1
 40
0.000000
 41
0.000000
 66
  1
  0
VERTEX
  8
gg1
 10
-0.099000
 20
0.431500
  0
VERTEX
  8
gg1
 10
-0.099000
 20
0.391500
  0
VERTEX
  8
gg1
 10
-0.069000
 20
0.391500
  0
VERTEX
  8
gg1
 10
-0.079000
 20
0.411500
  0
VERTEX
  8
gg1
 10
-0.079000
 20
0.421500
  0
VERTEX
  8
gg1
 10
-0.069000
 20
0.431500
  0
VERTEX
  8
gg1
 10
-0.049000
 20
0.431500
  0
VERTEX
  8
gg1
 10
-0.039000
 20
0.421500
  0
VERTEX
  8
gg1
 10
-0.039000
 20
0.401500
  0
VERTEX
  8
gg1
 10
-0.049000
 20
0.391500
  0
SEQEND
  8
gg1
  0
POLYLINE
  8
gg1
 62
1
 40
0.000000
 41
0.000000
 66
  1
  0
VERTEX
  8
gg1
 10
-0.039000
 20
0.451500
  0
VERTEX
  8
gg1
 10
-0.079000
 20
0.451500
  0
VERTEX
  8
gg1
 10
-0.079000
 20
0.461500
  0
VERTEX
  8
gg1
 10
-0.069000
 20
0.471500
  0
VERTEX
  8
gg1
 10
-0.039000
 20
0.471500
  0
VERTEX
  8
gg1
 10
-0.069000
 20
0.471500
  0
VERTEX
  8
gg1
 10
-0.079000
 20
0.481500
  0
VERTEX
  8
gg1
 10
-0.069000
 20
0.491500
  0
VERTEX
  8
gg1
 10
-0.039000
 20
0.491500
  0
SEQEND
  8
gg1
  0
POLYLINE
  8
gg1
 62
1
 40
0.000000
 41
0.000000
 66
  1
  0
VERTEX
  8
gg1
 10
-0.039000
 20
0.511500
  0
VERTEX
  8
gg1
 10
-0.039000
 20
0.531500
  0
VERTEX
  8
gg1
 10
-0.039000
 20
0.521500
  0
VERTEX
  8
gg1
 10
-0.079000
 20
0.521500
  0
VERTEX
  8
gg1
 10
-0.079000
 20
0.511500
  0
SEQEND
  8
gg1
  0
POLYLINE
  8
gg1
 62
1
 40
0.000000
 41
0.000000
 66
  1
  0
VERTEX
  8
gg1
 10
-0.039000
 20
0.561500
  0
VERTEX
  8
gg1
 10
-0.039000
 20
0.581400
  0
VERTEX
  8
gg1
 10
-0.039000
 20
0.571500
  0
VERTEX
  8
gg1
 10
-0.099000
 20
0.571500
  0
VERTEX
  8
gg1
 10
-0.099000
 20
0.561500
  0
SEQEND
  8
gg1
  0
POLYLINE
  8
gg1
 62
1
 40
0.000000
 41
0.000000
 66
  1
  0
VERTEX
  8
gg1
 10
0.290000
 20
0.050000
  0
VERTEX
  8
gg1
 10
0.330000
 20
0.050000
  0
SEQEND
  8
gg1
  0
POLYLINE
  8
gg1
 62
1
 40
0.000000
 41
0.000000
 66
  1
  0
VERTEX
  8
gg1
 10
0.310000
 20
0.030000
  0
VERTEX
  8
gg1
 10
0.310000
 20
0.070000
  0
SEQEND
  8
gg1
  0
POLYLINE
  8
gg1
 62
1
 40
0.000000
 41
0.000000
 66
  1
  0
VERTEX
  8
gg1
 10
0.190000
 20
0.050000
  0
VERTEX
  8
gg1
 10
0.230000
 20
0.050000
  0
SEQEND
  8
gg1
  0
POLYLINE
  8
gg1
 62
1
 40
0.000000
 41
0.000000
 66
  1
  0
VERTEX
  8
gg1
 10
0.210000
 20
0.030000
  0
VERTEX
  8
gg1
 10
0.210000
 20
0.070000
  0
SEQEND
  8
gg1
  0
POLYLINE
  8
gg1
 62
1
 40
0.000000
 41
0.000000
 66
  1
  0
VERTEX
  8
gg1
 10
0.090000
 20
0.050000
  0
VERTEX
  8
gg1
 10
0.130000
 20
0.050000
  0
SEQEND
  8
gg1
  0
POLYLINE
  8
gg1
 62
1
 40
0.000000
 41
0.000000
 66
  1
  0
VERTEX
  8
gg1
 10
0.110000
 20
0.030000
  0
VERTEX
  8
gg1
 10
0.110000
 20
0.070000
  0
SEQEND
  8
gg1
  0
POLYLINE
  8
gg1
 62
1
 40
0.000000
 41
0.000000
 66
  1
  0
VERTEX
  8
gg1
 10
0.027500
 20
0.640000
  0
VERTEX
  8
gg1
 10
0.042500
 20
0.640000
  0
SEQEND
  8
gg1
  0
POLYLINE
  8
gg1
 62
1
 40
0.000000
 41
0.000000
 66
  1
  0
VERTEX
  8
gg1
 10
0.035000
 20
0.632500
  0
VERTEX
  8
gg1
 10
0.035000
 20
0.647500
  0
SEQEND
  8
gg1
  0
POLYLINE
  8
gg1
 62
1
 40
0.000000
 41
0.000000
 66
  1
  0
VERTEX
  8
gg1
 10
0.027500
 20
0.600000
  0
VERTEX
  8
gg1
 10
0.042500
 20
0.600000
  0
SEQEND
  8
gg1
  0
POLYLINE
  8
gg1
 62
1
 40
0.000000
 41
0.000000
 66
  1
  0
VERTEX
  8
gg1
 10
0.035000
 20
0.592500
  0
VERTEX
  8
gg1
 10
0.035000
 20
0.607500
  0
SEQEND
  8
gg1
  0
POLYLINE
  8
gg1
 62
1
 40
0.000000
 41
0.000000
 66
  1
  0
VERTEX
  8
gg1
 10
0.262500
 20
0.635000
  0
VERTEX
  8
gg1
 10
0.277500
 20
0.635000
  0
SEQEND
  8
gg1
  0
POLYLINE
  8
gg1
 62
1
 40
0.000000
 41
0.000000
 66
  1
  0
VERTEX
  8
gg1
 10
0.270000
 20
0.627500
  0
VERTEX
  8
gg1
 10
0.270000
 20
0.642500
  0
SEQEND
  8
gg1
  0
POLYLINE
  8
gg1
 62
1
 40
0.000000
 41
0.000000
 66
  1
  0
VERTEX
  8
gg1
 10
0.270000
 20
0.675000
  0
VERTEX
  8
gg1
 10
0.285000
 20
0.675000
  0
SEQEND
  8
gg1
  0
POLYLINE
  8
gg1
 62
1
 40
0.000000
 41
0.000000
 66
  1
  0
VERTEX
  8
gg1
 10
0.277500
 20
0.667500
  0
VERTEX
  8
gg1
 10
0.277500
 20
0.682500
  0
SEQEND
  8
gg1
  0
POLYLINE
  8
gg1
 62
1
 40
0.000000
 41
0.000000
 66
  1
  0
VERTEX
  8
gg1
 10
0.027500
 20
0.555000
  0
VERTEX
  8
gg1
 10
0.042500
 20
0.555000
  0
SEQEND
  8
gg1
  0
POLYLINE
  8
gg1
 62
1
 40
0.000000
 41
0.000000
 66
  1
  0
VERTEX
  8
gg1
 10
0.035000
 20
0.547500
  0
VERTEX
  8
gg1
 10
0.035000
 20
0.562500
  0
SEQEND
  8
gg1
  0
POLYLINE
  8
gg1
 62
1
 40
0.000000
 41
0.000000
 66
  1
  0
VERTEX
  8
gg1
 10
0.092500
 20
0.515000
  0
VERTEX
  8
gg1
 10
0.107500
 20
0.515000
  0
SEQEND
  8
gg1
  0
POLYLINE
  8
gg1
 62
1
 40
0.000000
 41
0.000000
 66
  1
  0
VERTEX
  8
gg1
 10
0.100000
 20
0.507500
  0
VERTEX
  8
gg1
 10
0.100000
 20
0.522500
  0
SEQEND
  8
gg1
  0
POLYLINE
  8
gg1
 62
1
 40
0.000000
 41
0.000000
 66
  1
  0
VERTEX
  8
gg1
 10
0.092500
 20
0.475000
  0
VERTEX
  8
gg1
 10
0.107500
 20
0.475000
  0
SEQEND
  8
gg1
  0
POLYLINE
  8
gg1
 62
1
 40
0.000000
 41
0.000000
 66
  1
  0
VERTEX
  8
gg1
 10
0.100000
 20
0.467500
  0
VERTEX
  8
gg1
 10
0.100000
 20
0.482500
  0
SEQEND
  8
gg1
  0
POLYLINE
  8
gg1
 62
1
 40
0.000000
 41
0.000000
 66
  1
  0
VERTEX
  8
gg1
 10
0.092500
 20
0.435000
  0
VERTEX
  8
gg1
 10
0.107500
 20
0.435000
  0
SEQEND
  8
gg1
  0
POLYLINE
  8
gg1
 62
1
 40
0.000000
 41
0.000000
 66
  1
  0
VERTEX
  8
gg1
 10
0.100000
 20
0.427500
  0
VERTEX
  8
gg1
 10
0.100000
 20
0.442500
  0
SEQEND
  8
gg1
  0
POLYLINE
  8
gg1
 62
1
 40
0.000000
 41
0.000000
 66
  1
  0
VERTEX
  8
gg1
 10
0.092500
 20
0.395000
  0
VERTEX
  8
gg1
 10
0.107500
 20
0.395000
  0
SEQEND
  8
gg1
  0
POLYLINE
  8
gg1
 62
1
 40
0.000000
 41
0.000000
 66
  1
  0
VERTEX
  8
gg1
 10
0.100000
 20
0.387500
  0
VERTEX
  8
gg1
 10
0.100000
 20
0.402500
  0
SEQEND
  8
gg1
  0
POLYLINE
  8
gg1
 62
1
 40
0.000000
 41
0.000000
 66
  1
  0
VERTEX
  8
gg1
 10
0.092500
 20
0.355000
  0
VERTEX
  8
gg1
 10
0.107500
 20
0.355000
  0
SEQEND
  8
gg1
  0
POLYLINE
  8
gg1
 62
1
 40
0.000000
 41
0.000000
 66
  1
  0
VERTEX
  8
gg1
 10
0.100000
 20
0.347500
  0
VERTEX
  8
gg1
 10
0.100000
 20
0.362500
  0
SEQEND
  8
gg1
  0
POLYLINE
  8
gg1
 62
1
 40
0.000000
 41
0.000000
 66
  1
  0
VERTEX
  8
gg1
 10
0.092500
 20
0.315000
  0
VERTEX
  8
gg1
 10
0.107500
 20
0.315000
  0
SEQEND
  8
gg1
  0
POLYLINE
  8
gg1
 62
1
 40
0.000000
 41
0.000000
 66
  1
  0
VERTEX
  8
gg1
 10
0.100000
 20
0.307500
  0
VERTEX
  8
gg1
 10
0.100000
 20
0.322500
  0
SEQEND
  8
gg1
  0
POLYLINE
  8
gg1
 62
1
 40
0.000000
 41
0.000000
 66
  1
  0
VERTEX
  8
gg1
 10
0.027500
 20
0.295000
  0
VERTEX
  8
gg1
 10
0.042500
 20
0.295000
  0
SEQEND
  8
gg1
  0
POLYLINE
  8
gg1
 62
1
 40
0.000000
 41
0.000000
 66
  1
  0
VERTEX
  8
gg1
 10
0.035000
 20
0.287500
  0
VERTEX
  8
gg1
 10
0.035000
 20
0.302500
  0
SEQEND
  8
gg1
  0
POLYLINE
  8
gg1
 62
1
 40
0.000000
 41
0.000000
 66
  1
  0
VERTEX
  8
gg1
 10
0.067500
 20
0.285000
  0
VERTEX
  8
gg1
 10
0.082500
 20
0.285000
  0
SEQEND
  8
gg1
  0
POLYLINE
  8
gg1
 62
1
 40
0.000000
 41
0.000000
 66
  1
  0
VERTEX
  8
gg1
 10
0.075000
 20
0.277500
  0
VERTEX
  8
gg1
 10
0.075000
 20
0.292500
  0
SEQEND
  8
gg1
  0
POLYLINE
  8
gg1
 62
1
 40
0.000000
 41
0.000000
 66
  1
  0
VERTEX
  8
gg1
 10
0.132500
 20
0.690000
  0
VERTEX
  8
gg1
 10
0.147500
 20
0.690000
  0
SEQEND
  8
gg1
  0
POLYLINE
  8
gg1
 62
1
 40
0.000000
 41
0.000000
 66
  1
  0
VERTEX
  8
gg1
 10
0.140000
 20
0.682500
  0
VERTEX
  8
gg1
 10
0.140000
 20
0.697500
  0
SEQEND
  8
gg1
  0
POLYLINE
  8
gg1
 62
1
 40
0.000000
 41
0.000000
 66
  1
  0
VERTEX
  8
gg1
 10
0.132500
 20
0.750000
  0
VERTEX
  8
gg1
 10
0.147500
 20
0.750000
  0
SEQEND
  8
gg1
  0
POLYLINE
  8
gg1
 62
1
 40
0.000000
 41
0.000000
 66
  1
  0
VERTEX
  8
gg1
 10
0.140000
 20
0.742500
  0
VERTEX
  8
gg1
 10
0.140000
 20
0.757500
  0
SEQEND
  8
gg1
  0
POLYLINE
  8
gg1
 62
1
 40
0.000000
 41
0.000000
 66
  1
  0
VERTEX
  8
gg1
 10
0.132500
 20
0.805000
  0
VERTEX
  8
gg1
 10
0.147500
 20
0.805000
  0
SEQEND
  8
gg1
  0
POLYLINE
  8
gg1
 62
1
 40
0.000000
 41
0.000000
 66
  1
  0
VERTEX
  8
gg1
 10
0.140000
 20
0.797500
  0
VERTEX
  8
gg1
 10
0.140000
 20
0.812500
  0
SEQEND
  8
gg1
  0
POLYLINE
  8
gg1
 62
1
 40
0.000000
 41
0.000000
 66
  1
  0
VERTEX
  8
gg1
 10
0.372500
 20
0.100000
  0
VERTEX
  8
gg1
 10
0.387500
 20
0.100000
  0
SEQEND
  8
gg1
  0
POLYLINE
  8
gg1
 62
1
 40
0.000000
 41
0.000000
 66
  1
  0
VERTEX
  8
gg1
 10
0.380000
 20
0.092500
  0
VERTEX
  8
gg1
 10
0.380000
 20
0.107500
  0
SEQEND
  8
gg1
  0
POLYLINE
  8
gg1
 62
1
 40
0.000000
 41
0.000000
 66
  1
  0
VERTEX
  8
gg1
 10
0.317500
 20
0.140000
  0
VERTEX
  8
gg1
 10
0.332500
 20
0.140000
  0
SEQEND
  8
gg1
  0
POLYLINE
  8
gg1
 62
1
 40
0.000000
 41
0.000000
 66
  1
  0
VERTEX
  8
gg1
 10
0.325000
 20
0.132500
  0
VERTEX
  8
gg1
 10
0.325000
 20
0.147500
  0
SEQEND
  8
gg1
  0
POLYLINE
  8
gg1
 62
1
 40
0.000000
 41
0.000000
 66
  1
  0
VERTEX
  8
gg1
 10
0.317500
 20
0.180000
  0
VERTEX
  8
gg1
 10
0.332500
 20
0.180000
  0
SEQEND
  8
gg1
  0
POLYLINE
  8
gg1
 62
1
 40
0.000000
 41
0.000000
 66
  1
  0
VERTEX
  8
gg1
 10
0.325000
 20
0.172500
  0
VERTEX
  8
gg1
 10
0.325000
 20
0.187500
  0
SEQEND
  8
gg1
  0
POLYLINE
  8
gg1
 62
1
 40
0.000000
 41
0.000000
 66
  1
  0
VERTEX
  8
gg1
 10
0.317500
 20
0.220000
  0
VERTEX
  8
gg1
 10
0.332500
 20
0.220000
  0
SEQEND
  8
gg1
  0
POLYLINE
  8
gg1
 62
1
 40
0.000000
 41
0.000000
 66
  1
  0
VERTEX
  8
gg1
 10
0.325000
 20
0.212500
  0
VERTEX
  8
gg1
 10
0.325000
 20
0.227500
  0
SEQEND
  8
gg1
  0
POLYLINE
  8
gg1
 62
1
 40
0.000000
 41
0.000000
 66
  1
  0
VERTEX
  8
gg1
 10
0.317500
 20
0.260000
  0
VERTEX
  8
gg1
 10
0.332500
 20
0.260000
  0
SEQEND
  8
gg1
  0
POLYLINE
  8
gg1
 62
1
 40
0.000000
 41
0.000000
 66
  1
  0
VERTEX
  8
gg1
 10
0.325000
 20
0.252500
  0
VERTEX
  8
gg1
 10
0.325000
 20
0.267500
  0
SEQEND
  8
gg1
  0
POLYLINE
  8
gg1
 62
1
 40
0.000000
 41
0.000000
 66
  1
  0
VERTEX
  8
gg1
 10
0.362500
 20
0.300000
  0
VERTEX
  8
gg1
 10
0.377500
 20
0.300000
  0
SEQEND
  8
gg1
  0
POLYLINE
  8
gg1
 62
1
 40
0.000000
 41
0.000000
 66
  1
  0
VERTEX
  8
gg1
 10
0.370000
 20
0.292500
  0
VERTEX
  8
gg1
 10
0.370000
 20
0.307500
  0
SEQEND
  8
gg1
  0
POLYLINE
  8
gg1
 62
1
 40
0.000000
 41
0.000000
 66
  1
  0
VERTEX
  8
gg1
 10
0.132500
 20
0.550000
  0
VERTEX
  8
gg1
 10
0.147500
 20
0.550000
  0
SEQEND
  8
gg1
  0
POLYLINE
  8
gg1
 62
1
 40
0.000000
 41
0.000000
 66
  1
  0
VERTEX
  8
gg1
 10
0.140000
 20
0.542500
  0
VERTEX
  8
gg1
 10
0.140000
 20
0.557500
  0
SEQEND
  8
gg1
  0
POLYLINE
  8
gg1
 62
1
 40
0.000000
 41
0.000000
 66
  1
  0
VERTEX
  8
gg1
 10
0.157500
 20
0.510000
  0
VERTEX
  8
gg1
 10
0.172500
 20
0.510000
  0
SEQEND
  8
gg1
  0
POLYLINE
  8
gg1
 62
1
 40
0.000000
 41
0.000000
 66
  1
  0
VERTEX
  8
gg1
 10
0.165000
 20
0.502500
  0
VERTEX
  8
gg1
 10
0.165000
 20
0.517500
  0
SEQEND
  8
gg1
  0
POLYLINE
  8
gg1
 62
1
 40
0.000000
 41
0.000000
 66
  1
  0
VERTEX
  8
gg1
 10
0.132500
 20
0.470000
  0
VERTEX
  8
gg1
 10
0.147500
 20
0.470000
  0
SEQEND
  8
gg1
  0
POLYLINE
  8
gg1
 62
1
 40
0.000000
 41
0.000000
 66
  1
  0
VERTEX
  8
gg1
 10
0.140000
 20
0.462500
  0
VERTEX
  8
gg1
 10
0.140000
 20
0.477500
  0
SEQEND
  8
gg1
  0
POLYLINE
  8
gg1
 62
1
 40
0.000000
 41
0.000000
 66
  1
  0
VERTEX
  8
gg1
 10
0.157500
 20
0.430000
  0
VERTEX
  8
gg1
 10
0.172500
 20
0.430000
  0
SEQEND
  8
gg1
  0
POLYLINE
  8
gg1
 62
1
 40
0.000000
 41
0.000000
 66
  1
  0
VERTEX
  8
gg1
 10
0.165000
 20
0.422500
  0
VERTEX
  8
gg1
 10
0.165000
 20
0.437500
  0
SEQEND
  8
gg1
  0
POLYLINE
  8
gg1
 62
1
 40
0.000000
 41
0.000000
 66
  1
  0
VERTEX
  8
gg1
 10
0.132500
 20
0.390000
  0
VERTEX
  8
gg1
 10
0.147500
 20
0.390000
  0
SEQEND
  8
gg1
  0
POLYLINE
  8
gg1
 62
1
 40
0.000000
 41
0.000000
 66
  1
  0
VERTEX
  8
gg1
 10
0.140000
 20
0.382500
  0
VERTEX
  8
gg1
 10
0.140000
 20
0.397500
  0
SEQEND
  8
gg1
  0
POLYLINE
  8
gg1
 62
1
 40
0.000000
 41
0.000000
 66
  1
  0
VERTEX
  8
gg1
 10
0.157500
 20
0.350000
  0
VERTEX
  8
gg1
 10
0.172500
 20
0.350000
  0
SEQEND
  8
gg1
  0
POLYLINE
  8
gg1
 62
1
 40
0.000000
 41
0.000000
 66
  1
  0
VERTEX
  8
gg1
 10
0.165000
 20
0.342500
  0
VERTEX
  8
gg1
 10
0.165000
 20
0.357500
  0
SEQEND
  8
gg1
  0
POLYLINE
  8
gg1
 62
1
 40
0.000000
 41
0.000000
 66
  1
  0
VERTEX
  8
gg1
 10
0.132500
 20
0.310000
  0
VERTEX
  8
gg1
 10
0.147500
 20
0.310000
  0
SEQEND
  8
gg1
  0
POLYLINE
  8
gg1
 62
1
 40
0.000000
 41
0.000000
 66
  1
  0
VERTEX
  8
gg1
 10
0.140000
 20
0.302500
  0
VERTEX
  8
gg1
 10
0.140000
 20
0.317500
  0
SEQEND
  8
gg1
  0
POLYLINE
  8
gg1
 62
1
 40
0.000000
 41
0.000000
 66
  1
  0
VERTEX
  8
gg1
 10
0.202500
 20
0.280000
  0
VERTEX
  8
gg1
 10
0.217500
 20
0.280000
  0
SEQEND
  8
gg1
  0
POLYLINE
  8
gg1
 62
1
 40
0.000000
 41
0.000000
 66
  1
  0
VERTEX
  8
gg1
 10
0.210000
 20
0.272500
  0
VERTEX
  8
gg1
 10
0.210000
 20
0.287500
  0
SEQEND
  8
gg1
  0
POLYLINE
  8
gg1
 62
1
 40
0.000000
 41
0.000000
 66
  1
  0
VERTEX
  8
gg1
 10
0.282500
 20
0.290000
  0
VERTEX
  8
gg1
 10
0.297500
 20
0.290000
  0
SEQEND
  8
gg1
  0
POLYLINE
  8
gg1
 62
1
 40
0.000000
 41
0.000000
 66
  1
  0
VERTEX
  8
gg1
 10
0.290000
 20
0.282500
  0
VERTEX
  8
gg1
 10
0.290000
 20
0.297500
  0
SEQEND
  8
gg1
  0
ENDSEC
  0
EOF
