  0
SECTION
  2
HEADER
  9
$EXTMIN
 10
-0.102000
 20
-0.114000
  9
$EXTMAX
 10
0.805000
 20
0.705000
  9
$LIMMIN
 10
-0.102000
 20
-0.114000
  9
$LIMMAX
 10
0.805000
 20
0.705000
  9
$FILLMODE
 70
  1
  0
ENDSEC
  0
SECTION
  2
TABLES
  0
TABLE
  2
LTYPE
 70
  1
  0
LTYPE
  2
CONTINUOUS
 70
 64
  3
Solid line
 72
 65
 73
  0
 40
0.0
  0
ENDTAB
  0
TABLE
  2
LAYER
 70
 1
  0
LAYER
  2
0
 70
  0
 62
7
  6
CONTINUOUS
  0
LAYER
  2
gg1
 70
  0
 62
1
  6
CONTINUOUS
  0
ENDTAB
  0
TABLE
  2
STYLE
 70
  1
  0
STYLE
  2
STANDARD
 70
  0
 40
0.0
 41
1.0
 50
0.0
 71
  0
 42
0.2
  3
txt
  4

  0
ENDTAB
  0
ENDSEC
  0
SECTION
  2
BLOCKS
  0
BLOCK
  8
0
  2
D10
 70
64
 10
0.0
 20
0.0
  3
D10
  0
CIRCLE
  8
0
 10
0.000000
 20
0.000000
 40
0.005000
 0
ENDBLK
  8
0
  0
BLOCK
  8
0
  2
D11
 70
64
 10
0.0
 20
0.0
  3
D11
  0
CIRCLE
  8
0
 10
0.000000
 20
0.000000
 40
0.004000
 0
ENDBLK
  8
0
  0
BLOCK
  8
0
  2
D12
 70
64
 10
0.0
 20
0.0
  3
D12
  0
CIRCLE
  8
0
 10
0.000000
 20
0.000000
 40
0.003000
 0
ENDBLK
  8
0
  0
BLOCK
  8
0
  2
D13
 70
64
 10
0.0
 20
0.0
  3
D13
  0
CIRCLE
  8
0
 10
0.000000
 20
0.000000
 40
0.002500
 0
ENDBLK
  8
0
  0
ENDSEC
  0
SECTION
  2
ENTITIES
  0
POLYLINE
  8
gg1
 62
1
 40
0.000000
 41
0.000000
 66
  1
  0
VERTEX
  8
gg1
 10
0.442500
 20
0.452500
  0
VERTEX
  8
gg1
 10
0.487500
 20
0.452500
  0
SEQEND
  8
gg1
  0
POLYLINE
  8
gg1
 62
1
 40
0.000000
 41
0.000000
 66
  1
  0
VERTEX
  8
gg1
 10
0.442500
 20
0.247500
  0
VERTEX
  8
gg1
 10
0.487500
 20
0.247500
  0
SEQEND
  8
gg1
  0
POLYLINE
  8
gg1
 62
1
 40
0.000000
 41
0.000000
 66
  1
  0
VERTEX
  8
gg1
 10
0.465000
 20
0.225000
  0
VERTEX
  8
gg1
 10
0.465000
 20
0.475000
  0
SEQEND
  8
gg1
  0
POLYLINE
  8
gg1
 62
1
 40
0.000000
 41
0.000000
 66
  1
  0
VERTEX
  8
gg1
 10
-0.095000
 20
0.060000
  0
VERTEX
  8
gg1
 10
-0.075000
 20
0.000000
  0
VERTEX
  8
gg1
 10
-0.055000
 20
0.060000
  0
SEQEND
  8
gg1
  0
POLYLINE
  8
gg1
 62
1
 40
0.000000
 41
0.000000
 66
  1
  0
VERTEX
  8
gg1
 10
-0.075000
 20
0.700000
  0
VERTEX
  8
gg1
 10
-0.055000
 20
0.640000
  0
SEQEND
  8
gg1
  0
POLYLINE
  8
gg1
 62
1
 40
0.000000
 41
0.000000
 66
  1
  0
VERTEX
  8
gg1
 10
-0.095000
 20
0.640000
  0
VERTEX
  8
gg1
 10
-0.075000
 20
0.700000
  0
SEQEND
  8
gg1
  0
POLYLINE
  8
gg1
 62
1
 40
0.000000
 41
0.000000
 66
  1
  0
VERTEX
  8
gg1
 10
-0.075000
 20
0.000000
  0
VERTEX
  8
gg1
 10
-0.075000
 20
0.163000
  0
SEQEND
  8
gg1
  0
POLYLINE
  8
gg1
 62
1
 40
0.000000
 41
0.000000
 66
  1
  0
VERTEX
  8
gg1
 10
-0.075000
 20
0.504900
  0
VERTEX
  8
gg1
 10
-0.075000
 20
0.700000
  0
SEQEND
  8
gg1
  0
POLYLINE
  8
gg1
 62
1
 40
0.000000
 41
0.000000
 66
  1
  0
VERTEX
  8
gg1
 10
-0.085000
 20
0.000000
  0
VERTEX
  8
gg1
 10
-0.014000
 20
0.000000
  0
SEQEND
  8
gg1
  0
POLYLINE
  8
gg1
 62
1
 40
0.000000
 41
0.000000
 66
  1
  0
VERTEX
  8
gg1
 10
-0.085000
 20
0.700000
  0
VERTEX
  8
gg1
 10
-0.014000
 20
0.700000
  0
SEQEND
  8
gg1
  0
POLYLINE
  8
gg1
 62
1
 40
0.000000
 41
0.000000
 66
  1
  0
VERTEX
  8
gg1
 10
0.000000
 20
-0.075000
  0
VERTEX
  8
gg1
 10
0.060000
 20
-0.055000
  0
SEQEND
  8
gg1
  0
POLYLINE
  8
gg1
 62
1
 40
0.000000
 41
0.000000
 66
  1
  0
VERTEX
  8
gg1
 10
0.000000
 20
-0.075000
  0
VERTEX
  8
gg1
 10
0.060000
 20
-0.095000
  0
SEQEND
  8
gg1
  0
POLYLINE
  8
gg1
 62
1
 40
0.000000
 41
0.000000
 66
  1
  0
VERTEX
  8
gg1
 10
0.740000
 20
-0.095000
  0
VERTEX
  8
gg1
 10
0.800000
 20
-0.075000
  0
SEQEND
  8
gg1
  0
POLYLINE
  8
gg1
 62
1
 40
0.000000
 41
0.000000
 66
  1
  0
VERTEX
  8
gg1
 10
0.740000
 20
-0.055000
  0
VERTEX
  8
gg1
 10
0.800000
 20
-0.075000
  0
SEQEND
  8
gg1
  0
POLYLINE
  8
gg1
 62
1
 40
0.000000
 41
0.000000
 66
  1
  0
VERTEX
  8
gg1
 10
0.000000
 20
-0.075000
  0
VERTEX
  8
gg1
 10
0.213000
 20
-0.075000
  0
SEQEND
  8
gg1
  0
POLYLINE
  8
gg1
 62
1
 40
0.000000
 41
0.000000
 66
  1
  0
VERTEX
  8
gg1
 10
0.554900
 20
-0.075000
  0
VERTEX
  8
gg1
 10
0.800000
 20
-0.075000
  0
SEQEND
  8
gg1
  0
POLYLINE
  8
gg1
 62
1
 40
0.000000
 41
0.000000
 66
  1
  0
VERTEX
  8
gg1
 10
0.000000
 20
-0.085000
  0
VERTEX
  8
gg1
 10
0.000000
 20
-0.014000
  0
SEQEND
  8
gg1
  0
POLYLINE
  8
gg1
 62
1
 40
0.000000
 41
0.000000
 66
  1
  0
VERTEX
  8
gg1
 10
0.800000
 20
-0.085000
  0
VERTEX
  8
gg1
 10
0.800000
 20
-0.014000
  0
SEQEND
  8
gg1
  0
POLYLINE
  8
gg1
 62
1
 40
0.000000
 41
0.000000
 66
  1
  0
VERTEX
  8
gg1
 10
0.000000
 20
0.000000
  0
VERTEX
  8
gg1
 10
0.000000
 20
0.700000
  0
VERTEX
  8
gg1
 10
0.800000
 20
0.700000
  0
SEQEND
  8
gg1
  0
POLYLINE
  8
gg1
 62
1
 40
0.000000
 41
0.000000
 66
  1
  0
VERTEX
  8
gg1
 10
0.800000
 20
0.000000
  0
VERTEX
  8
gg1
 10
0.800000
 20
0.700000
  0
SEQEND
  8
gg1
  0
POLYLINE
  8
gg1
 62
1
 40
0.000000
 41
0.000000
 66
  1
  0
VERTEX
  8
gg1
 10
0.000000
 20
0.000000
  0
VERTEX
  8
gg1
 10
0.800000
 20
0.000000
  0
SEQEND
  8
gg1
  0
POLYLINE
  8
gg1
 62
1
 40
0.000000
 41
0.000000
 66
  1
  0
VERTEX
  8
gg1
 10
-0.099000
 20
0.179000
  0
VERTEX
  8
gg1
 10
-0.099000
 20
0.219000
  0
VERTEX
  8
gg1
 10
-0.089000
 20
0.219000
  0
VERTEX
  8
gg1
 10
-0.049000
 20
0.179000
  0
VERTEX
  8
gg1
 10
-0.039000
 20
0.179000
  0
SEQEND
  8
gg1
  0
POLYLINE
  8
gg1
 62
1
 40
0.000000
 41
0.000000
 66
  1
  0
VERTEX
  8
gg1
 10
-0.089000
 20
0.239000
  0
VERTEX
  8
gg1
 10
-0.099000
 20
0.249000
  0
VERTEX
  8
gg1
 10
-0.099000
 20
0.269000
  0
VERTEX
  8
gg1
 10
-0.089000
 20
0.279000
  0
VERTEX
  8
gg1
 10
-0.049000
 20
0.279000
  0
VERTEX
  8
gg1
 10
-0.039000
 20
0.269000
  0
VERTEX
  8
gg1
 10
-0.039000
 20
0.249000
  0
VERTEX
  8
gg1
 10
-0.049000
 20
0.239000
  0
VERTEX
  8
gg1
 10
-0.089000
 20
0.239000
  0
SEQEND
  8
gg1
  0
POLYLINE
  8
gg1
 62
1
 40
0.000000
 41
0.000000
 66
  1
  0
VERTEX
  8
gg1
 10
-0.089000
 20
0.299000
  0
VERTEX
  8
gg1
 10
-0.099000
 20
0.309000
  0
VERTEX
  8
gg1
 10
-0.099000
 20
0.329000
  0
VERTEX
  8
gg1
 10
-0.089000
 20
0.339000
  0
VERTEX
  8
gg1
 10
-0.049000
 20
0.339000
  0
VERTEX
  8
gg1
 10
-0.039000
 20
0.329000
  0
VERTEX
  8
gg1
 10
-0.039000
 20
0.309000
  0
VERTEX
  8
gg1
 10
-0.049000
 20
0.299000
  0
VERTEX
  8
gg1
 10
-0.089000
 20
0.299000
  0
SEQEND
  8
gg1
  0
POLYLINE
  8
gg1
 62
1
 40
0.000000
 41
0.000000
 66
  1
  0
VERTEX
  8
gg1
 10
-0.039000
 20
0.359000
  0
VERTEX
  8
gg1
 10
-0.079000
 20
0.359000
  0
VERTEX
  8
gg1
 10
-0.079000
 20
0.369000
  0
VERTEX
  8
gg1
 10
-0.069000
 20
0.379000
  0
VERTEX
  8
gg1
 10
-0.039000
 20
0.379000
  0
VERTEX
  8
gg1
 10
-0.069000
 20
0.379000
  0
VERTEX
  8
gg1
 10
-0.079000
 20
0.389000
  0
VERTEX
  8
gg1
 10
-0.069000
 20
0.399000
  0
VERTEX
  8
gg1
 10
-0.039000
 20
0.399000
  0
SEQEND
  8
gg1
  0
POLYLINE
  8
gg1
 62
1
 40
0.000000
 41
0.000000
 66
  1
  0
VERTEX
  8
gg1
 10
-0.039000
 20
0.419000
  0
VERTEX
  8
gg1
 10
-0.039000
 20
0.439000
  0
VERTEX
  8
gg1
 10
-0.039000
 20
0.429000
  0
VERTEX
  8
gg1
 10
-0.079000
 20
0.429000
  0
VERTEX
  8
gg1
 10
-0.079000
 20
0.419000
  0
SEQEND
  8
gg1
  0
POLYLINE
  8
gg1
 62
1
 40
0.000000
 41
0.000000
 66
  1
  0
VERTEX
  8
gg1
 10
-0.039000
 20
0.469000
  0
VERTEX
  8
gg1
 10
-0.039000
 20
0.489000
  0
VERTEX
  8
gg1
 10
-0.039000
 20
0.479000
  0
VERTEX
  8
gg1
 10
-0.099000
 20
0.479000
  0
VERTEX
  8
gg1
 10
-0.099000
 20
0.469000
  0
SEQEND
  8
gg1
  0
POLYLINE
  8
gg1
 62
1
 40
0.000000
 41
0.000000
 66
  1
  0
VERTEX
  8
gg1
 10
0.229000
 20
-0.061000
  0
VERTEX
  8
gg1
 10
0.239000
 20
-0.051000
  0
VERTEX
  8
gg1
 10
0.259000
 20
-0.051000
  0
VERTEX
  8
gg1
 10
0.269000
 20
-0.061000
  0
VERTEX
  8
gg1
 10
0.269000
 20
-0.071000
  0
VERTEX
  8
gg1
 10
0.259000
 20
-0.081000
  0
VERTEX
  8
gg1
 10
0.269000
 20
-0.091000
  0
VERTEX
  8
gg1
 10
0.269000
 20
-0.101000
  0
VERTEX
  8
gg1
 10
0.259000
 20
-0.111000
  0
VERTEX
  8
gg1
 10
0.239000
 20
-0.111000
  0
VERTEX
  8
gg1
 10
0.229000
 20
-0.101000
  0
VERTEX
  8
gg1
 10
0.229000
 20
-0.091000
  0
VERTEX
  8
gg1
 10
0.239000
 20
-0.081000
  0
VERTEX
  8
gg1
 10
0.229000
 20
-0.071000
  0
VERTEX
  8
gg1
 10
0.229000
 20
-0.061000
  0
SEQEND
  8
gg1
  0
POLYLINE
  8
gg1
 62
1
 40
0.000000
 41
0.000000
 66
  1
  0
VERTEX
  8
gg1
 10
0.239000
 20
-0.081000
  0
VERTEX
  8
gg1
 10
0.259000
 20
-0.081000
  0
SEQEND
  8
gg1
  0
POLYLINE
  8
gg1
 62
1
 40
0.000000
 41
0.000000
 66
  1
  0
VERTEX
  8
gg1
 10
0.289000
 20
-0.061000
  0
VERTEX
  8
gg1
 10
0.299000
 20
-0.051000
  0
VERTEX
  8
gg1
 10
0.319000
 20
-0.051000
  0
VERTEX
  8
gg1
 10
0.329000
 20
-0.061000
  0
VERTEX
  8
gg1
 10
0.329000
 20
-0.101000
  0
VERTEX
  8
gg1
 10
0.319000
 20
-0.111000
  0
VERTEX
  8
gg1
 10
0.299000
 20
-0.111000
  0
VERTEX
  8
gg1
 10
0.289000
 20
-0.101000
  0
VERTEX
  8
gg1
 10
0.289000
 20
-0.061000
  0
SEQEND
  8
gg1
  0
POLYLINE
  8
gg1
 62
1
 40
0.000000
 41
0.000000
 66
  1
  0
VERTEX
  8
gg1
 10
0.349000
 20
-0.061000
  0
VERTEX
  8
gg1
 10
0.359000
 20
-0.051000
  0
VERTEX
  8
gg1
 10
0.379000
 20
-0.051000
  0
VERTEX
  8
gg1
 10
0.389000
 20
-0.061000
  0
VERTEX
  8
gg1
 10
0.389000
 20
-0.101000
  0
VERTEX
  8
gg1
 10
0.379000
 20
-0.111000
  0
VERTEX
  8
gg1
 10
0.359000
 20
-0.111000
  0
VERTEX
  8
gg1
 10
0.349000
 20
-0.101000
  0
VERTEX
  8
gg1
 10
0.349000
 20
-0.061000
  0
SEQEND
  8
gg1
  0
POLYLINE
  8
gg1
 62
1
 40
0.000000
 41
0.000000
 66
  1
  0
VERTEX
  8
gg1
 10
0.409000
 20
-0.111000
  0
VERTEX
  8
gg1
 10
0.409000
 20
-0.071000
  0
VERTEX
  8
gg1
 10
0.419000
 20
-0.071000
  0
VERTEX
  8
gg1
 10
0.429000
 20
-0.081000
  0
VERTEX
  8
gg1
 10
0.429000
 20
-0.111000
  0
VERTEX
  8
gg1
 10
0.429000
 20
-0.081000
  0
VERTEX
  8
gg1
 10
0.439000
 20
-0.071000
  0
VERTEX
  8
gg1
 10
0.449000
 20
-0.081000
  0
VERTEX
  8
gg1
 10
0.449000
 20
-0.111000
  0
SEQEND
  8
gg1
  0
POLYLINE
  8
gg1
 62
1
 40
0.000000
 41
0.000000
 66
  1
  0
VERTEX
  8
gg1
 10
0.469000
 20
-0.111000
  0
VERTEX
  8
gg1
 10
0.489000
 20
-0.111000
  0
VERTEX
  8
gg1
 10
0.479000
 20
-0.111000
  0
VERTEX
  8
gg1
 10
0.479000
 20
-0.071000
  0
VERTEX
  8
gg1
 10
0.469000
 20
-0.071000
  0
SEQEND
  8
gg1
  0
POLYLINE
  8
gg1
 62
1
 40
0.000000
 41
0.000000
 66
  1
  0
VERTEX
  8
gg1
 10
0.519000
 20
-0.111000
  0
VERTEX
  8
gg1
 10
0.539000
 20
-0.111000
  0
VERTEX
  8
gg1
 10
0.529000
 20
-0.111000
  0
VERTEX
  8
gg1
 10
0.529000
 20
-0.051000
  0
VERTEX
  8
gg1
 10
0.519000
 20
-0.051000
  0
SEQEND
  8
gg1
  0
POLYLINE
  8
gg1
 62
1
 40
0.000000
 41
0.000000
 66
  1
  0
VERTEX
  8
gg1
 10
0.045000
 20
0.450000
  0
VERTEX
  8
gg1
 10
0.095000
 20
0.450000
  0
SEQEND
  8
gg1
  0
POLYLINE
  8
gg1
 62
1
 40
0.000000
 41
0.000000
 66
  1
  0
VERTEX
  8
gg1
 10
0.070000
 20
0.425000
  0
VERTEX
  8
gg1
 10
0.070000
 20
0.475000
  0
SEQEND
  8
gg1
  0
POLYLINE
  8
gg1
 62
1
 40
0.000000
 41
0.000000
 66
  1
  0
VERTEX
  8
gg1
 10
0.045000
 20
0.250000
  0
VERTEX
  8
gg1
 10
0.095000
 20
0.250000
  0
SEQEND
  8
gg1
  0
POLYLINE
  8
gg1
 62
1
 40
0.000000
 41
0.000000
 66
  1
  0
VERTEX
  8
gg1
 10
0.070000
 20
0.225000
  0
VERTEX
  8
gg1
 10
0.070000
 20
0.275000
  0
SEQEND
  8
gg1
  0
POLYLINE
  8
gg1
 62
1
 40
0.000000
 41
0.000000
 66
  1
  0
VERTEX
  8
gg1
 10
0.720000
 20
0.250000
  0
VERTEX
  8
gg1
 10
0.760000
 20
0.250000
  0
SEQEND
  8
gg1
  0
POLYLINE
  8
gg1
 62
1
 40
0.000000
 41
0.000000
 66
  1
  0
VERTEX
  8
gg1
 10
0.740000
 20
0.230000
  0
VERTEX
  8
gg1
 10
0.740000
 20
0.270000
  0
SEQEND
  8
gg1
  0
POLYLINE
  8
gg1
 62
1
 40
0.000000
 41
0.000000
 66
  1
  0
VERTEX
  8
gg1
 10
0.720000
 20
0.350000
  0
VERTEX
  8
gg1
 10
0.760000
 20
0.350000
  0
SEQEND
  8
gg1
  0
POLYLINE
  8
gg1
 62
1
 40
0.000000
 41
0.000000
 66
  1
  0
VERTEX
  8
gg1
 10
0.740000
 20
0.330000
  0
VERTEX
  8
gg1
 10
0.740000
 20
0.370000
  0
SEQEND
  8
gg1
  0
POLYLINE
  8
gg1
 62
1
 40
0.000000
 41
0.000000
 66
  1
  0
VERTEX
  8
gg1
 10
0.720000
 20
0.450000
  0
VERTEX
  8
gg1
 10
0.760000
 20
0.450000
  0
SEQEND
  8
gg1
  0
POLYLINE
  8
gg1
 62
1
 40
0.000000
 41
0.000000
 66
  1
  0
VERTEX
  8
gg1
 10
0.740000
 20
0.430000
  0
VERTEX
  8
gg1
 10
0.740000
 20
0.470000
  0
SEQEND
  8
gg1
  0
POLYLINE
  8
gg1
 62
1
 40
0.000000
 41
0.000000
 66
  1
  0
VERTEX
  8
gg1
 10
0.125000
 20
0.420000
  0
VERTEX
  8
gg1
 10
0.175000
 20
0.420000
  0
SEQEND
  8
gg1
  0
POLYLINE
  8
gg1
 62
1
 40
0.000000
 41
0.000000
 66
  1
  0
VERTEX
  8
gg1
 10
0.150000
 20
0.395000
  0
VERTEX
  8
gg1
 10
0.150000
 20
0.445000
  0
SEQEND
  8
gg1
  0
POLYLINE
  8
gg1
 62
1
 40
0.000000
 41
0.000000
 66
  1
  0
VERTEX
  8
gg1
 10
0.125000
 20
0.280000
  0
VERTEX
  8
gg1
 10
0.175000
 20
0.280000
  0
SEQEND
  8
gg1
  0
POLYLINE
  8
gg1
 62
1
 40
0.000000
 41
0.000000
 66
  1
  0
VERTEX
  8
gg1
 10
0.150000
 20
0.255000
  0
VERTEX
  8
gg1
 10
0.150000
 20
0.305000
  0
SEQEND
  8
gg1
  0
POLYLINE
  8
gg1
 62
1
 40
0.000000
 41
0.000000
 66
  1
  0
VERTEX
  8
gg1
 10
0.080000
 20
0.550000
  0
VERTEX
  8
gg1
 10
0.220000
 20
0.550000
  0
SEQEND
  8
gg1
  0
POLYLINE
  8
gg1
 62
1
 40
0.000000
 41
0.000000
 66
  1
  0
VERTEX
  8
gg1
 10
0.150000
 20
0.480000
  0
VERTEX
  8
gg1
 10
0.150000
 20
0.620000
  0
SEQEND
  8
gg1
  0
POLYLINE
  8
gg1
 62
1
 40
0.000000
 41
0.000000
 66
  1
  0
VERTEX
  8
gg1
 10
0.080000
 20
0.150000
  0
VERTEX
  8
gg1
 10
0.220000
 20
0.150000
  0
SEQEND
  8
gg1
  0
POLYLINE
  8
gg1
 62
1
 40
0.000000
 41
0.000000
 66
  1
  0
VERTEX
  8
gg1
 10
0.150000
 20
0.080000
  0
VERTEX
  8
gg1
 10
0.150000
 20
0.220000
  0
SEQEND
  8
gg1
  0
POLYLINE
  8
gg1
 62
1
 40
0.000000
 41
0.000000
 66
  1
  0
VERTEX
  8
gg1
 10
0.657000
 20
0.600000
  0
VERTEX
  8
gg1
 10
0.743000
 20
0.600000
  0
SEQEND
  8
gg1
  0
POLYLINE
  8
gg1
 62
1
 40
0.000000
 41
0.000000
 66
  1
  0
VERTEX
  8
gg1
 10
0.700000
 20
0.557000
  0
VERTEX
  8
gg1
 10
0.700000
 20
0.643000
  0
SEQEND
  8
gg1
  0
POLYLINE
  8
gg1
 62
1
 40
0.000000
 41
0.000000
 66
  1
  0
VERTEX
  8
gg1
 10
0.657000
 20
0.100000
  0
VERTEX
  8
gg1
 10
0.743000
 20
0.100000
  0
SEQEND
  8
gg1
  0
POLYLINE
  8
gg1
 62
1
 40
0.000000
 41
0.000000
 66
  1
  0
VERTEX
  8
gg1
 10
0.700000
 20
0.057000
  0
VERTEX
  8
gg1
 10
0.700000
 20
0.143000
  0
SEQEND
  8
gg1
  0
POLYLINE
  8
gg1
 62
1
 40
0.000000
 41
0.000000
 66
  1
  0
VERTEX
  8
gg1
 10
0.220000
 20
0.400000
  0
VERTEX
  8
gg1
 10
0.260000
 20
0.400000
  0
SEQEND
  8
gg1
  0
POLYLINE
  8
gg1
 62
1
 40
0.000000
 41
0.000000
 66
  1
  0
VERTEX
  8
gg1
 10
0.240000
 20
0.380000
  0
VERTEX
  8
gg1
 10
0.240000
 20
0.420000
  0
SEQEND
  8
gg1
  0
POLYLINE
  8
gg1
 62
1
 40
0.000000
 41
0.000000
 66
  1
  0
VERTEX
  8
gg1
 10
0.220000
 20
0.300000
  0
VERTEX
  8
gg1
 10
0.260000
 20
0.300000
  0
SEQEND
  8
gg1
  0
POLYLINE
  8
gg1
 62
1
 40
0.000000
 41
0.000000
 66
  1
  0
VERTEX
  8
gg1
 10
0.240000
 20
0.280000
  0
VERTEX
  8
gg1
 10
0.240000
 20
0.320000
  0
SEQEND
  8
gg1
  0
POLYLINE
  8
gg1
 62
1
 40
0.000000
 41
0.000000
 66
  1
  0
VERTEX
  8
gg1
 10
0.282000
 20
0.575000
  0
VERTEX
  8
gg1
 10
0.368000
 20
0.575000
  0
SEQEND
  8
gg1
  0
POLYLINE
  8
gg1
 62
1
 40
0.000000
 41
0.000000
 66
  1
  0
VERTEX
  8
gg1
 10
0.325000
 20
0.532000
  0
VERTEX
  8
gg1
 10
0.325000
 20
0.618000
  0
SEQEND
  8
gg1
  0
POLYLINE
  8
gg1
 62
1
 40
0.000000
 41
0.000000
 66
  1
  0
VERTEX
  8
gg1
 10
0.282000
 20
0.125000
  0
VERTEX
  8
gg1
 10
0.368000
 20
0.125000
  0
SEQEND
  8
gg1
  0
POLYLINE
  8
gg1
 62
1
 40
0.000000
 41
0.000000
 66
  1
  0
VERTEX
  8
gg1
 10
0.325000
 20
0.082000
  0
VERTEX
  8
gg1
 10
0.325000
 20
0.168000
  0
SEQEND
  8
gg1
  0
ENDSEC
  0
EOF
