  0
SECTION
  2
HEADER
  9
$EXTMIN
 10
7.323000
 20
14.811000
  9
$EXTMAX
 10
8.265000
 20
16.305000
  9
$LIMMIN
 10
7.323000
 20
14.811000
  9
$LIMMAX
 10
8.265000
 20
16.305000
  9
$FILLMODE
 70
  1
  0
ENDSEC
  0
SECTION
  2
TABLES
  0
TABLE
  2
LTYPE
 70
  1
  0
LTYPE
  2
CONTINUOUS
 70
 64
  3
Solid line
 72
 65
 73
  0
 40
0.0
  0
ENDTAB
  0
TABLE
  2
LAYER
 70
 1
  0
LAYER
  2
0
 70
  0
 62
7
  6
CONTINUOUS
  0
LAYER
  2
gg1
 70
  0
 62
1
  6
CONTINUOUS
  0
ENDTAB
  0
TABLE
  2
STYLE
 70
  1
  0
STYLE
  2
STANDARD
 70
  0
 40
0.0
 41
1.0
 50
0.0
 71
  0
 42
0.2
  3
txt
  4

  0
ENDTAB
  0
ENDSEC
  0
SECTION
  2
BLOCKS
  0
BLOCK
  8
0
  2
D10
 70
64
 10
0.0
 20
0.0
  3
D10
  0
CIRCLE
  8
0
 10
0.000000
 20
0.000000
 40
0.005000
 0
ENDBLK
  8
0
  0
BLOCK
  8
0
  2
D11
 70
64
 10
0.0
 20
0.0
  3
D11
  0
CIRCLE
  8
0
 10
0.000000
 20
0.000000
 40
0.002500
 0
ENDBLK
  8
0
  0
BLOCK
  8
0
  2
D12
 70
64
 10
0.0
 20
0.0
  3
D12
  0
CIRCLE
  8
0
 10
0.000000
 20
0.000000
 40
0.003500
 0
ENDBLK
  8
0
  0
BLOCK
  8
0
  2
D13
 70
64
 10
0.0
 20
0.0
  3
D13
  0
CIRCLE
  8
0
 10
0.000000
 20
0.000000
 40
0.003000
 0
ENDBLK
  8
0
  0
ENDSEC
  0
SECTION
  2
ENTITIES
  0
POLYLINE
  8
gg1
 62
1
 40
0.000000
 41
0.000000
 66
  1
  0
VERTEX
  8
gg1
 10
8.260000
 20
14.840000
  0
VERTEX
  8
gg1
 10
8.260000
 20
14.987500
  0
SEQEND
  8
gg1
  0
POLYLINE
  8
gg1
 62
1
 40
0.000000
 41
0.000000
 66
  1
  0
VERTEX
  8
gg1
 10
7.500000
 20
14.840000
  0
VERTEX
  8
gg1
 10
7.500000
 20
14.987500
  0
SEQEND
  8
gg1
  0
POLYLINE
  8
gg1
 62
1
 40
0.000000
 41
0.000000
 66
  1
  0
VERTEX
  8
gg1
 10
8.035000
 20
14.850000
  0
VERTEX
  8
gg1
 10
8.260000
 20
14.850000
  0
SEQEND
  8
gg1
  0
POLYLINE
  8
gg1
 62
1
 40
0.000000
 41
0.000000
 66
  1
  0
VERTEX
  8
gg1
 10
7.500000
 20
14.850000
  0
VERTEX
  8
gg1
 10
7.693000
 20
14.850000
  0
SEQEND
  8
gg1
  0
POLYLINE
  8
gg1
 62
1
 40
0.000000
 41
0.000000
 66
  1
  0
VERTEX
  8
gg1
 10
8.200000
 20
14.870000
  0
VERTEX
  8
gg1
 10
8.260000
 20
14.850000
  0
SEQEND
  8
gg1
  0
POLYLINE
  8
gg1
 62
1
 40
0.000000
 41
0.000000
 66
  1
  0
VERTEX
  8
gg1
 10
8.200000
 20
14.830000
  0
VERTEX
  8
gg1
 10
8.260000
 20
14.850000
  0
SEQEND
  8
gg1
  0
POLYLINE
  8
gg1
 62
1
 40
0.000000
 41
0.000000
 66
  1
  0
VERTEX
  8
gg1
 10
7.500000
 20
14.850000
  0
VERTEX
  8
gg1
 10
7.560000
 20
14.830000
  0
SEQEND
  8
gg1
  0
POLYLINE
  8
gg1
 62
1
 40
0.000000
 41
0.000000
 66
  1
  0
VERTEX
  8
gg1
 10
7.500000
 20
14.850000
  0
VERTEX
  8
gg1
 10
7.560000
 20
14.870000
  0
SEQEND
  8
gg1
  0
POLYLINE
  8
gg1
 62
1
 40
0.000000
 41
0.000000
 66
  1
  0
VERTEX
  8
gg1
 10
7.340000
 20
16.300000
  0
VERTEX
  8
gg1
 10
7.487500
 20
16.300000
  0
SEQEND
  8
gg1
  0
POLYLINE
  8
gg1
 62
1
 40
0.000000
 41
0.000000
 66
  1
  0
VERTEX
  8
gg1
 10
7.340000
 20
15.000000
  0
VERTEX
  8
gg1
 10
7.487500
 20
15.000000
  0
SEQEND
  8
gg1
  0
POLYLINE
  8
gg1
 62
1
 40
0.000000
 41
0.000000
 66
  1
  0
VERTEX
  8
gg1
 10
7.350000
 20
15.829900
  0
VERTEX
  8
gg1
 10
7.350000
 20
16.300000
  0
SEQEND
  8
gg1
  0
POLYLINE
  8
gg1
 62
1
 40
0.000000
 41
0.000000
 66
  1
  0
VERTEX
  8
gg1
 10
7.350000
 20
15.000000
  0
VERTEX
  8
gg1
 10
7.350000
 20
15.438100
  0
SEQEND
  8
gg1
  0
POLYLINE
  8
gg1
 62
1
 40
0.000000
 41
0.000000
 66
  1
  0
VERTEX
  8
gg1
 10
7.330000
 20
16.240000
  0
VERTEX
  8
gg1
 10
7.350000
 20
16.300000
  0
VERTEX
  8
gg1
 10
7.370000
 20
16.240000
  0
SEQEND
  8
gg1
  0
POLYLINE
  8
gg1
 62
1
 40
0.000000
 41
0.000000
 66
  1
  0
VERTEX
  8
gg1
 10
7.350000
 20
15.000000
  0
VERTEX
  8
gg1
 10
7.370000
 20
15.060000
  0
SEQEND
  8
gg1
  0
POLYLINE
  8
gg1
 62
1
 40
0.000000
 41
0.000000
 66
  1
  0
VERTEX
  8
gg1
 10
7.330000
 20
15.060000
  0
VERTEX
  8
gg1
 10
7.350000
 20
15.000000
  0
SEQEND
  8
gg1
  0
POLYLINE
  8
gg1
 62
1
 40
0.000000
 41
0.000000
 66
  1
  0
VERTEX
  8
gg1
 10
7.500000
 20
15.000000
  0
VERTEX
  8
gg1
 10
7.500000
 20
16.300000
  0
VERTEX
  8
gg1
 10
8.260000
 20
16.300000
  0
SEQEND
  8
gg1
  0
POLYLINE
  8
gg1
 62
1
 40
0.000000
 41
0.000000
 66
  1
  0
VERTEX
  8
gg1
 10
8.260000
 20
15.455000
  0
VERTEX
  8
gg1
 10
8.260000
 20
16.300000
  0
SEQEND
  8
gg1
  0
POLYLINE
  8
gg1
 62
1
 40
0.000000
 41
0.000000
 66
  1
  0
VERTEX
  8
gg1
 10
8.210000
 20
15.405000
  0
VERTEX
  8
gg1
 10
8.260000
 20
15.455000
  0
SEQEND
  8
gg1
  0
POLYLINE
  8
gg1
 62
1
 40
0.000000
 41
0.000000
 66
  1
  0
VERTEX
  8
gg1
 10
8.210000
 20
15.155000
  0
VERTEX
  8
gg1
 10
8.210000
 20
15.405000
  0
SEQEND
  8
gg1
  0
POLYLINE
  8
gg1
 62
1
 40
0.000000
 41
0.000000
 66
  1
  0
VERTEX
  8
gg1
 10
8.210000
 20
15.155000
  0
VERTEX
  8
gg1
 10
8.260000
 20
15.105000
  0
SEQEND
  8
gg1
  0
POLYLINE
  8
gg1
 62
1
 40
0.000000
 41
0.000000
 66
  1
  0
VERTEX
  8
gg1
 10
8.260000
 20
15.000000
  0
VERTEX
  8
gg1
 10
8.260000
 20
15.105000
  0
SEQEND
  8
gg1
  0
POLYLINE
  8
gg1
 62
1
 40
0.000000
 41
0.000000
 66
  1
  0
VERTEX
  8
gg1
 10
7.500000
 20
15.000000
  0
VERTEX
  8
gg1
 10
8.260000
 20
15.000000
  0
SEQEND
  8
gg1
  0
POLYLINE
  8
gg1
 62
1
 40
0.000000
 41
0.000000
 66
  1
  0
VERTEX
  8
gg1
 10
7.645000
 20
16.260000
  0
VERTEX
  8
gg1
 10
7.665000
 20
16.260000
  0
SEQEND
  8
gg1
  0
POLYLINE
  8
gg1
 62
1
 40
0.000000
 41
0.000000
 66
  1
  0
VERTEX
  8
gg1
 10
7.655000
 20
16.250000
  0
VERTEX
  8
gg1
 10
7.655000
 20
16.270000
  0
SEQEND
  8
gg1
  0
POLYLINE
  8
gg1
 62
1
 40
0.000000
 41
0.000000
 66
  1
  0
VERTEX
  8
gg1
 10
7.932000
 20
15.100000
  0
VERTEX
  8
gg1
 10
8.018000
 20
15.100000
  0
SEQEND
  8
gg1
  0
POLYLINE
  8
gg1
 62
1
 40
0.000000
 41
0.000000
 66
  1
  0
VERTEX
  8
gg1
 10
7.975000
 20
15.057000
  0
VERTEX
  8
gg1
 10
7.975000
 20
15.143000
  0
SEQEND
  8
gg1
  0
POLYLINE
  8
gg1
 62
1
 40
0.000000
 41
0.000000
 66
  1
  0
VERTEX
  8
gg1
 10
7.755000
 20
15.730000
  0
VERTEX
  8
gg1
 10
7.775000
 20
15.730000
  0
SEQEND
  8
gg1
  0
POLYLINE
  8
gg1
 62
1
 40
0.000000
 41
0.000000
 66
  1
  0
VERTEX
  8
gg1
 10
7.765000
 20
15.720000
  0
VERTEX
  8
gg1
 10
7.765000
 20
15.740000
  0
SEQEND
  8
gg1
  0
POLYLINE
  8
gg1
 62
1
 40
0.000000
 41
0.000000
 66
  1
  0
VERTEX
  8
gg1
 10
7.535000
 20
15.880000
  0
VERTEX
  8
gg1
 10
7.555000
 20
15.880000
  0
SEQEND
  8
gg1
  0
POLYLINE
  8
gg1
 62
1
 40
0.000000
 41
0.000000
 66
  1
  0
VERTEX
  8
gg1
 10
7.545000
 20
15.870000
  0
VERTEX
  8
gg1
 10
7.545000
 20
15.890000
  0
SEQEND
  8
gg1
  0
POLYLINE
  8
gg1
 62
1
 40
0.000000
 41
0.000000
 66
  1
  0
VERTEX
  8
gg1
 10
7.885000
 20
15.755000
  0
VERTEX
  8
gg1
 10
7.905000
 20
15.755000
  0
SEQEND
  8
gg1
  0
POLYLINE
  8
gg1
 62
1
 40
0.000000
 41
0.000000
 66
  1
  0
VERTEX
  8
gg1
 10
7.895000
 20
15.745000
  0
VERTEX
  8
gg1
 10
7.895000
 20
15.765000
  0
SEQEND
  8
gg1
  0
POLYLINE
  8
gg1
 62
1
 40
0.000000
 41
0.000000
 66
  1
  0
VERTEX
  8
gg1
 10
7.745000
 20
15.966000
  0
VERTEX
  8
gg1
 10
7.765000
 20
15.966000
  0
SEQEND
  8
gg1
  0
POLYLINE
  8
gg1
 62
1
 40
0.000000
 41
0.000000
 66
  1
  0
VERTEX
  8
gg1
 10
7.755000
 20
15.956000
  0
VERTEX
  8
gg1
 10
7.755000
 20
15.976000
  0
SEQEND
  8
gg1
  0
POLYLINE
  8
gg1
 62
1
 40
0.000000
 41
0.000000
 66
  1
  0
VERTEX
  8
gg1
 10
8.117000
 20
16.150000
  0
VERTEX
  8
gg1
 10
8.203000
 20
16.150000
  0
SEQEND
  8
gg1
  0
POLYLINE
  8
gg1
 62
1
 40
0.000000
 41
0.000000
 66
  1
  0
VERTEX
  8
gg1
 10
8.160000
 20
16.107000
  0
VERTEX
  8
gg1
 10
8.160000
 20
16.193000
  0
SEQEND
  8
gg1
  0
POLYLINE
  8
gg1
 62
1
 40
0.000000
 41
0.000000
 66
  1
  0
VERTEX
  8
gg1
 10
7.530000
 20
15.050000
  0
VERTEX
  8
gg1
 10
7.570000
 20
15.050000
  0
SEQEND
  8
gg1
  0
POLYLINE
  8
gg1
 62
1
 40
0.000000
 41
0.000000
 66
  1
  0
VERTEX
  8
gg1
 10
7.550000
 20
15.030000
  0
VERTEX
  8
gg1
 10
7.550000
 20
15.070000
  0
SEQEND
  8
gg1
  0
POLYLINE
  8
gg1
 62
1
 40
0.000000
 41
0.000000
 66
  1
  0
VERTEX
  8
gg1
 10
7.530000
 20
15.150000
  0
VERTEX
  8
gg1
 10
7.570000
 20
15.150000
  0
SEQEND
  8
gg1
  0
POLYLINE
  8
gg1
 62
1
 40
0.000000
 41
0.000000
 66
  1
  0
VERTEX
  8
gg1
 10
7.550000
 20
15.130000
  0
VERTEX
  8
gg1
 10
7.550000
 20
15.170000
  0
SEQEND
  8
gg1
  0
POLYLINE
  8
gg1
 62
1
 40
0.000000
 41
0.000000
 66
  1
  0
VERTEX
  8
gg1
 10
7.530000
 20
15.250000
  0
VERTEX
  8
gg1
 10
7.570000
 20
15.250000
  0
SEQEND
  8
gg1
  0
POLYLINE
  8
gg1
 62
1
 40
0.000000
 41
0.000000
 66
  1
  0
VERTEX
  8
gg1
 10
7.550000
 20
15.230000
  0
VERTEX
  8
gg1
 10
7.550000
 20
15.270000
  0
SEQEND
  8
gg1
  0
POLYLINE
  8
gg1
 62
1
 40
0.000000
 41
0.000000
 66
  1
  0
VERTEX
  8
gg1
 10
7.530000
 20
15.350000
  0
VERTEX
  8
gg1
 10
7.570000
 20
15.350000
  0
SEQEND
  8
gg1
  0
POLYLINE
  8
gg1
 62
1
 40
0.000000
 41
0.000000
 66
  1
  0
VERTEX
  8
gg1
 10
7.550000
 20
15.330000
  0
VERTEX
  8
gg1
 10
7.550000
 20
15.370000
  0
SEQEND
  8
gg1
  0
POLYLINE
  8
gg1
 62
1
 40
0.000000
 41
0.000000
 66
  1
  0
VERTEX
  8
gg1
 10
7.557000
 20
16.150000
  0
VERTEX
  8
gg1
 10
7.643000
 20
16.150000
  0
SEQEND
  8
gg1
  0
POLYLINE
  8
gg1
 62
1
 40
0.000000
 41
0.000000
 66
  1
  0
VERTEX
  8
gg1
 10
7.600000
 20
16.107000
  0
VERTEX
  8
gg1
 10
7.600000
 20
16.193000
  0
SEQEND
  8
gg1
  0
POLYLINE
  8
gg1
 62
1
 40
0.000000
 41
0.000000
 66
  1
  0
VERTEX
  8
gg1
 10
7.535000
 20
15.635000
  0
VERTEX
  8
gg1
 10
7.555000
 20
15.635000
  0
SEQEND
  8
gg1
  0
POLYLINE
  8
gg1
 62
1
 40
0.000000
 41
0.000000
 66
  1
  0
VERTEX
  8
gg1
 10
7.545000
 20
15.625000
  0
VERTEX
  8
gg1
 10
7.545000
 20
15.645000
  0
SEQEND
  8
gg1
  0
POLYLINE
  8
gg1
 62
1
 40
0.000000
 41
0.000000
 66
  1
  0
VERTEX
  8
gg1
 10
8.260000
 20
15.105000
  0
VERTEX
  8
gg1
 10
8.260000
 20
15.000000
  0
SEQEND
  8
gg1
  0
POLYLINE
  8
gg1
 62
1
 40
0.000000
 41
0.000000
 66
  1
  0
VERTEX
  8
gg1
 10
8.210000
 20
15.405000
  0
VERTEX
  8
gg1
 10
8.260000
 20
15.455000
  0
SEQEND
  8
gg1
  0
POLYLINE
  8
gg1
 62
1
 40
0.000000
 41
0.000000
 66
  1
  0
VERTEX
  8
gg1
 10
8.210000
 20
15.155000
  0
VERTEX
  8
gg1
 10
8.210000
 20
15.405000
  0
SEQEND
  8
gg1
  0
POLYLINE
  8
gg1
 62
1
 40
0.000000
 41
0.000000
 66
  1
  0
VERTEX
  8
gg1
 10
8.210000
 20
15.155000
  0
VERTEX
  8
gg1
 10
8.260000
 20
15.105000
  0
SEQEND
  8
gg1
  0
POLYLINE
  8
gg1
 62
1
 40
0.000000
 41
0.000000
 66
  1
  0
VERTEX
  8
gg1
 10
8.260000
 20
16.300000
  0
VERTEX
  8
gg1
 10
8.260000
 20
15.455000
  0
SEQEND
  8
gg1
  0
POLYLINE
  8
gg1
 62
1
 40
0.000000
 41
0.000000
 66
  1
  0
VERTEX
  8
gg1
 10
7.500000
 20
15.000000
  0
VERTEX
  8
gg1
 10
8.260000
 20
15.000000
  0
SEQEND
  8
gg1
  0
POLYLINE
  8
gg1
 62
1
 40
0.000000
 41
0.000000
 66
  1
  0
VERTEX
  8
gg1
 10
7.500000
 20
16.300000
  0
VERTEX
  8
gg1
 10
8.260000
 20
16.300000
  0
SEQEND
  8
gg1
  0
POLYLINE
  8
gg1
 62
1
 40
0.000000
 41
0.000000
 66
  1
  0
VERTEX
  8
gg1
 10
7.500000
 20
15.000000
  0
VERTEX
  8
gg1
 10
7.500000
 20
16.300000
  0
SEQEND
  8
gg1
  0
POLYLINE
  8
gg1
 62
1
 40
0.000000
 41
0.000000
 66
  1
  0
VERTEX
  8
gg1
 10
7.709100
 20
14.874000
  0
VERTEX
  8
gg1
 10
7.749000
 20
14.874000
  0
VERTEX
  8
gg1
 10
7.749000
 20
14.864000
  0
VERTEX
  8
gg1
 10
7.709100
 20
14.824000
  0
VERTEX
  8
gg1
 10
7.709100
 20
14.814000
  0
SEQEND
  8
gg1
  0
POLYLINE
  8
gg1
 62
1
 40
0.000000
 41
0.000000
 66
  1
  0
VERTEX
  8
gg1
 10
7.809000
 20
14.874000
  0
VERTEX
  8
gg1
 10
7.789000
 20
14.864000
  0
VERTEX
  8
gg1
 10
7.769000
 20
14.844000
  0
VERTEX
  8
gg1
 10
7.769000
 20
14.824000
  0
VERTEX
  8
gg1
 10
7.779000
 20
14.814000
  0
VERTEX
  8
gg1
 10
7.799000
 20
14.814000
  0
VERTEX
  8
gg1
 10
7.809000
 20
14.824000
  0
VERTEX
  8
gg1
 10
7.809000
 20
14.834000
  0
VERTEX
  8
gg1
 10
7.799000
 20
14.844000
  0
VERTEX
  8
gg1
 10
7.769000
 20
14.844000
  0
SEQEND
  8
gg1
  0
POLYLINE
  8
gg1
 62
1
 40
0.000000
 41
0.000000
 66
  1
  0
VERTEX
  8
gg1
 10
7.829000
 20
14.864000
  0
VERTEX
  8
gg1
 10
7.839000
 20
14.874000
  0
VERTEX
  8
gg1
 10
7.859000
 20
14.874000
  0
VERTEX
  8
gg1
 10
7.869000
 20
14.864000
  0
VERTEX
  8
gg1
 10
7.869000
 20
14.824000
  0
VERTEX
  8
gg1
 10
7.859000
 20
14.814000
  0
VERTEX
  8
gg1
 10
7.839000
 20
14.814000
  0
VERTEX
  8
gg1
 10
7.829000
 20
14.824000
  0
VERTEX
  8
gg1
 10
7.829000
 20
14.864000
  0
SEQEND
  8
gg1
  0
POLYLINE
  8
gg1
 62
1
 40
0.000000
 41
0.000000
 66
  1
  0
VERTEX
  8
gg1
 10
7.889000
 20
14.814000
  0
VERTEX
  8
gg1
 10
7.889000
 20
14.854000
  0
VERTEX
  8
gg1
 10
7.899000
 20
14.854000
  0
VERTEX
  8
gg1
 10
7.909000
 20
14.844000
  0
VERTEX
  8
gg1
 10
7.909000
 20
14.814000
  0
VERTEX
  8
gg1
 10
7.909000
 20
14.844000
  0
VERTEX
  8
gg1
 10
7.919000
 20
14.854000
  0
VERTEX
  8
gg1
 10
7.929000
 20
14.844000
  0
VERTEX
  8
gg1
 10
7.929000
 20
14.814000
  0
SEQEND
  8
gg1
  0
POLYLINE
  8
gg1
 62
1
 40
0.000000
 41
0.000000
 66
  1
  0
VERTEX
  8
gg1
 10
7.949000
 20
14.814000
  0
VERTEX
  8
gg1
 10
7.969000
 20
14.814000
  0
VERTEX
  8
gg1
 10
7.959000
 20
14.814000
  0
VERTEX
  8
gg1
 10
7.959000
 20
14.854000
  0
VERTEX
  8
gg1
 10
7.949000
 20
14.854000
  0
SEQEND
  8
gg1
  0
POLYLINE
  8
gg1
 62
1
 40
0.000000
 41
0.000000
 66
  1
  0
VERTEX
  8
gg1
 10
7.999000
 20
14.814000
  0
VERTEX
  8
gg1
 10
8.019000
 20
14.814000
  0
VERTEX
  8
gg1
 10
8.009000
 20
14.814000
  0
VERTEX
  8
gg1
 10
8.009000
 20
14.874000
  0
VERTEX
  8
gg1
 10
7.999000
 20
14.874000
  0
SEQEND
  8
gg1
  0
POLYLINE
  8
gg1
 62
1
 40
0.000000
 41
0.000000
 66
  1
  0
VERTEX
  8
gg1
 10
7.386000
 20
15.454100
  0
VERTEX
  8
gg1
 10
7.386000
 20
15.474100
  0
VERTEX
  8
gg1
 10
7.386000
 20
15.464100
  0
VERTEX
  8
gg1
 10
7.326000
 20
15.464100
  0
VERTEX
  8
gg1
 10
7.336000
 20
15.454100
  0
SEQEND
  8
gg1
  0
POLYLINE
  8
gg1
 62
1
 40
0.000000
 41
0.000000
 66
  1
  0
VERTEX
  8
gg1
 10
7.336000
 20
15.504000
  0
VERTEX
  8
gg1
 10
7.326000
 20
15.514000
  0
VERTEX
  8
gg1
 10
7.326000
 20
15.534000
  0
VERTEX
  8
gg1
 10
7.336000
 20
15.544000
  0
VERTEX
  8
gg1
 10
7.346000
 20
15.544000
  0
VERTEX
  8
gg1
 10
7.356000
 20
15.534000
  0
VERTEX
  8
gg1
 10
7.356000
 20
15.524000
  0
VERTEX
  8
gg1
 10
7.356000
 20
15.534000
  0
VERTEX
  8
gg1
 10
7.366000
 20
15.544000
  0
VERTEX
  8
gg1
 10
7.376000
 20
15.544000
  0
VERTEX
  8
gg1
 10
7.386000
 20
15.534000
  0
VERTEX
  8
gg1
 10
7.386000
 20
15.514000
  0
VERTEX
  8
gg1
 10
7.376000
 20
15.504000
  0
SEQEND
  8
gg1
  0
POLYLINE
  8
gg1
 62
1
 40
0.000000
 41
0.000000
 66
  1
  0
VERTEX
  8
gg1
 10
7.336000
 20
15.564000
  0
VERTEX
  8
gg1
 10
7.326000
 20
15.574000
  0
VERTEX
  8
gg1
 10
7.326000
 20
15.594000
  0
VERTEX
  8
gg1
 10
7.336000
 20
15.604000
  0
VERTEX
  8
gg1
 10
7.376000
 20
15.604000
  0
VERTEX
  8
gg1
 10
7.386000
 20
15.594000
  0
VERTEX
  8
gg1
 10
7.386000
 20
15.574000
  0
VERTEX
  8
gg1
 10
7.376000
 20
15.564000
  0
VERTEX
  8
gg1
 10
7.336000
 20
15.564000
  0
SEQEND
  8
gg1
  0
POLYLINE
  8
gg1
 62
1
 40
0.000000
 41
0.000000
 66
  1
  0
VERTEX
  8
gg1
 10
7.336000
 20
15.624000
  0
VERTEX
  8
gg1
 10
7.326000
 20
15.634000
  0
VERTEX
  8
gg1
 10
7.326000
 20
15.654000
  0
VERTEX
  8
gg1
 10
7.336000
 20
15.664000
  0
VERTEX
  8
gg1
 10
7.376000
 20
15.664000
  0
VERTEX
  8
gg1
 10
7.386000
 20
15.654000
  0
VERTEX
  8
gg1
 10
7.386000
 20
15.634000
  0
VERTEX
  8
gg1
 10
7.376000
 20
15.624000
  0
VERTEX
  8
gg1
 10
7.336000
 20
15.624000
  0
SEQEND
  8
gg1
  0
POLYLINE
  8
gg1
 62
1
 40
0.000000
 41
0.000000
 66
  1
  0
VERTEX
  8
gg1
 10
7.386000
 20
15.684000
  0
VERTEX
  8
gg1
 10
7.346000
 20
15.684000
  0
VERTEX
  8
gg1
 10
7.346000
 20
15.694000
  0
VERTEX
  8
gg1
 10
7.356000
 20
15.704000
  0
VERTEX
  8
gg1
 10
7.386000
 20
15.704000
  0
VERTEX
  8
gg1
 10
7.356000
 20
15.704000
  0
VERTEX
  8
gg1
 10
7.346000
 20
15.714000
  0
VERTEX
  8
gg1
 10
7.356000
 20
15.724000
  0
VERTEX
  8
gg1
 10
7.386000
 20
15.724000
  0
SEQEND
  8
gg1
  0
POLYLINE
  8
gg1
 62
1
 40
0.000000
 41
0.000000
 66
  1
  0
VERTEX
  8
gg1
 10
7.386000
 20
15.744000
  0
VERTEX
  8
gg1
 10
7.386000
 20
15.764000
  0
VERTEX
  8
gg1
 10
7.386000
 20
15.754000
  0
VERTEX
  8
gg1
 10
7.346000
 20
15.754000
  0
VERTEX
  8
gg1
 10
7.346000
 20
15.744000
  0
SEQEND
  8
gg1
  0
POLYLINE
  8
gg1
 62
1
 40
0.000000
 41
0.000000
 66
  1
  0
VERTEX
  8
gg1
 10
7.386000
 20
15.793900
  0
VERTEX
  8
gg1
 10
7.386000
 20
15.813900
  0
VERTEX
  8
gg1
 10
7.386000
 20
15.803900
  0
VERTEX
  8
gg1
 10
7.326000
 20
15.803900
  0
VERTEX
  8
gg1
 10
7.326000
 20
15.793900
  0
SEQEND
  8
gg1
  0
ENDSEC
  0
EOF
