  0
SECTION
  2
HEADER
  9
$EXTMIN
 10
7.301000
 20
14.828000
  9
$EXTMAX
 10
7.905000
 20
15.319000
  9
$LIMMIN
 10
7.301000
 20
14.828000
  9
$LIMMAX
 10
7.905000
 20
15.319000
  9
$FILLMODE
 70
  1
  0
ENDSEC
  0
SECTION
  2
TABLES
  0
TABLE
  2
LTYPE
 70
  1
  0
LTYPE
  2
CONTINUOUS
 70
 64
  3
Solid line
 72
 65
 73
  0
 40
0.0
  0
ENDTAB
  0
TABLE
  2
LAYER
 70
 1
  0
LAYER
  2
0
 70
  0
 62
7
  6
CONTINUOUS
  0
LAYER
  2
gg1
 70
  0
 62
1
  6
CONTINUOUS
  0
ENDTAB
  0
TABLE
  2
STYLE
 70
  1
  0
STYLE
  2
STANDARD
 70
  0
 40
0.0
 41
1.0
 50
0.0
 71
  0
 42
0.2
  3
txt
  4

  0
ENDTAB
  0
ENDSEC
  0
SECTION
  2
BLOCKS
  0
BLOCK
  8
0
  2
D10
 70
64
 10
0.0
 20
0.0
  3
D10
  0
CIRCLE
  8
0
 10
0.000000
 20
0.000000
 40
0.002500
 0
ENDBLK
  8
0
  0
BLOCK
  8
0
  2
D11
 70
64
 10
0.0
 20
0.0
  3
D11
  0
CIRCLE
  8
0
 10
0.000000
 20
0.000000
 40
0.005000
 0
ENDBLK
  8
0
  0
BLOCK
  8
0
  2
D12
 70
64
 10
0.0
 20
0.0
  3
D12
  0
CIRCLE
  8
0
 10
0.000000
 20
0.000000
 40
0.003000
 0
ENDBLK
  8
0
  0
ENDSEC
  0
SECTION
  2
ENTITIES
  0
POLYLINE
  8
gg1
 62
1
 40
0.000000
 41
0.000000
 66
  1
  0
VERTEX
  8
gg1
 10
7.527500
 20
15.050000
  0
VERTEX
  8
gg1
 10
7.572500
 20
15.050000
  0
SEQEND
  8
gg1
  0
POLYLINE
  8
gg1
 62
1
 40
0.000000
 41
0.000000
 66
  1
  0
VERTEX
  8
gg1
 10
7.527500
 20
15.105000
  0
VERTEX
  8
gg1
 10
7.572500
 20
15.105000
  0
SEQEND
  8
gg1
  0
POLYLINE
  8
gg1
 62
1
 40
0.000000
 41
0.000000
 66
  1
  0
VERTEX
  8
gg1
 10
7.550000
 20
15.177500
  0
VERTEX
  8
gg1
 10
7.550000
 20
15.272500
  0
SEQEND
  8
gg1
  0
POLYLINE
  8
gg1
 62
1
 40
0.000000
 41
0.000000
 66
  1
  0
VERTEX
  8
gg1
 10
7.550000
 20
15.027500
  0
VERTEX
  8
gg1
 10
7.550000
 20
15.122500
  0
SEQEND
  8
gg1
  0
POLYLINE
  8
gg1
 62
1
 40
0.000000
 41
0.000000
 66
  1
  0
VERTEX
  8
gg1
 10
7.527500
 20
15.250000
  0
VERTEX
  8
gg1
 10
7.572500
 20
15.250000
  0
SEQEND
  8
gg1
  0
POLYLINE
  8
gg1
 62
1
 40
0.000000
 41
0.000000
 66
  1
  0
VERTEX
  8
gg1
 10
7.527500
 20
15.200000
  0
VERTEX
  8
gg1
 10
7.572500
 20
15.200000
  0
SEQEND
  8
gg1
  0
POLYLINE
  8
gg1
 62
1
 40
0.000000
 41
0.000000
 66
  1
  0
VERTEX
  8
gg1
 10
7.630000
 20
15.250000
  0
VERTEX
  8
gg1
 10
7.670000
 20
15.250000
  0
SEQEND
  8
gg1
  0
POLYLINE
  8
gg1
 62
1
 40
0.000000
 41
0.000000
 66
  1
  0
VERTEX
  8
gg1
 10
7.650000
 20
15.230000
  0
VERTEX
  8
gg1
 10
7.650000
 20
15.270000
  0
SEQEND
  8
gg1
  0
POLYLINE
  8
gg1
 62
1
 40
0.000000
 41
0.000000
 66
  1
  0
VERTEX
  8
gg1
 10
7.630000
 20
15.050000
  0
VERTEX
  8
gg1
 10
7.670000
 20
15.050000
  0
SEQEND
  8
gg1
  0
POLYLINE
  8
gg1
 62
1
 40
0.000000
 41
0.000000
 66
  1
  0
VERTEX
  8
gg1
 10
7.650000
 20
15.030000
  0
VERTEX
  8
gg1
 10
7.650000
 20
15.070000
  0
SEQEND
  8
gg1
  0
POLYLINE
  8
gg1
 62
1
 40
0.000000
 41
0.000000
 66
  1
  0
VERTEX
  8
gg1
 10
7.830000
 20
15.250000
  0
VERTEX
  8
gg1
 10
7.870000
 20
15.250000
  0
SEQEND
  8
gg1
  0
POLYLINE
  8
gg1
 62
1
 40
0.000000
 41
0.000000
 66
  1
  0
VERTEX
  8
gg1
 10
7.850000
 20
15.230000
  0
VERTEX
  8
gg1
 10
7.850000
 20
15.270000
  0
SEQEND
  8
gg1
  0
POLYLINE
  8
gg1
 62
1
 40
0.000000
 41
0.000000
 66
  1
  0
VERTEX
  8
gg1
 10
7.830000
 20
15.150000
  0
VERTEX
  8
gg1
 10
7.870000
 20
15.150000
  0
SEQEND
  8
gg1
  0
POLYLINE
  8
gg1
 62
1
 40
0.000000
 41
0.000000
 66
  1
  0
VERTEX
  8
gg1
 10
7.850000
 20
15.130000
  0
VERTEX
  8
gg1
 10
7.850000
 20
15.170000
  0
SEQEND
  8
gg1
  0
POLYLINE
  8
gg1
 62
1
 40
0.000000
 41
0.000000
 66
  1
  0
VERTEX
  8
gg1
 10
7.830000
 20
15.050000
  0
VERTEX
  8
gg1
 10
7.870000
 20
15.050000
  0
SEQEND
  8
gg1
  0
POLYLINE
  8
gg1
 62
1
 40
0.000000
 41
0.000000
 66
  1
  0
VERTEX
  8
gg1
 10
7.850000
 20
15.030000
  0
VERTEX
  8
gg1
 10
7.850000
 20
15.070000
  0
SEQEND
  8
gg1
  0
POLYLINE
  8
gg1
 62
1
 40
0.000000
 41
0.000000
 66
  1
  0
VERTEX
  8
gg1
 10
7.500000
 20
15.000000
  0
VERTEX
  8
gg1
 10
7.900000
 20
15.000000
  0
SEQEND
  8
gg1
  0
POLYLINE
  8
gg1
 62
1
 40
0.000000
 41
0.000000
 66
  1
  0
VERTEX
  8
gg1
 10
7.500000
 20
15.000000
  0
VERTEX
  8
gg1
 10
7.500000
 20
15.300000
  0
SEQEND
  8
gg1
  0
POLYLINE
  8
gg1
 62
1
 40
0.000000
 41
0.000000
 66
  1
  0
VERTEX
  8
gg1
 10
7.900000
 20
15.000000
  0
VERTEX
  8
gg1
 10
7.900000
 20
15.300000
  0
SEQEND
  8
gg1
  0
POLYLINE
  8
gg1
 62
1
 40
0.000000
 41
0.000000
 66
  1
  0
VERTEX
  8
gg1
 10
7.500000
 20
15.300000
  0
VERTEX
  8
gg1
 10
7.900000
 20
15.300000
  0
SEQEND
  8
gg1
  0
POLYLINE
  8
gg1
 62
1
 40
0.000000
 41
0.000000
 66
  1
  0
VERTEX
  8
gg1
 10
7.405000
 20
15.060000
  0
VERTEX
  8
gg1
 10
7.425000
 20
15.000000
  0
VERTEX
  8
gg1
 10
7.445000
 20
15.060000
  0
SEQEND
  8
gg1
  0
POLYLINE
  8
gg1
 62
1
 40
0.000000
 41
0.000000
 66
  1
  0
VERTEX
  8
gg1
 10
7.425000
 20
15.300000
  0
VERTEX
  8
gg1
 10
7.445000
 20
15.240000
  0
SEQEND
  8
gg1
  0
POLYLINE
  8
gg1
 62
1
 40
0.000000
 41
0.000000
 66
  1
  0
VERTEX
  8
gg1
 10
7.405000
 20
15.240000
  0
VERTEX
  8
gg1
 10
7.425000
 20
15.300000
  0
SEQEND
  8
gg1
  0
POLYLINE
  8
gg1
 62
1
 40
0.000000
 41
0.000000
 66
  1
  0
VERTEX
  8
gg1
 10
7.425000
 20
15.000000
  0
VERTEX
  8
gg1
 10
7.425000
 20
15.150000
  0
VERTEX
  8
gg1
 10
7.425000
 20
15.300000
  0
SEQEND
  8
gg1
  0
POLYLINE
  8
gg1
 62
1
 40
0.000000
 41
0.000000
 66
  1
  0
VERTEX
  8
gg1
 10
7.415000
 20
15.000000
  0
VERTEX
  8
gg1
 10
7.485000
 20
15.000000
  0
SEQEND
  8
gg1
  0
POLYLINE
  8
gg1
 62
1
 40
0.000000
 41
0.000000
 66
  1
  0
VERTEX
  8
gg1
 10
7.415000
 20
15.300000
  0
VERTEX
  8
gg1
 10
7.485000
 20
15.300000
  0
SEQEND
  8
gg1
  0
POLYLINE
  8
gg1
 62
1
 40
0.000000
 41
0.000000
 66
  1
  0
VERTEX
  8
gg1
 10
7.500000
 20
14.925000
  0
VERTEX
  8
gg1
 10
7.560000
 20
14.945000
  0
SEQEND
  8
gg1
  0
POLYLINE
  8
gg1
 62
1
 40
0.000000
 41
0.000000
 66
  1
  0
VERTEX
  8
gg1
 10
7.500000
 20
14.925000
  0
VERTEX
  8
gg1
 10
7.560000
 20
14.905000
  0
SEQEND
  8
gg1
  0
POLYLINE
  8
gg1
 62
1
 40
0.000000
 41
0.000000
 66
  1
  0
VERTEX
  8
gg1
 10
7.840000
 20
14.905000
  0
VERTEX
  8
gg1
 10
7.900000
 20
14.925000
  0
SEQEND
  8
gg1
  0
POLYLINE
  8
gg1
 62
1
 40
0.000000
 41
0.000000
 66
  1
  0
VERTEX
  8
gg1
 10
7.840000
 20
14.945000
  0
VERTEX
  8
gg1
 10
7.900000
 20
14.925000
  0
SEQEND
  8
gg1
  0
POLYLINE
  8
gg1
 62
1
 40
0.000000
 41
0.000000
 66
  1
  0
VERTEX
  8
gg1
 10
7.500000
 20
14.925000
  0
VERTEX
  8
gg1
 10
7.700000
 20
14.925000
  0
VERTEX
  8
gg1
 10
7.900000
 20
14.925000
  0
SEQEND
  8
gg1
  0
POLYLINE
  8
gg1
 62
1
 40
0.000000
 41
0.000000
 66
  1
  0
VERTEX
  8
gg1
 10
7.500000
 20
14.915000
  0
VERTEX
  8
gg1
 10
7.500000
 20
14.985000
  0
SEQEND
  8
gg1
  0
POLYLINE
  8
gg1
 62
1
 40
0.000000
 41
0.000000
 66
  1
  0
VERTEX
  8
gg1
 10
7.900000
 20
14.915000
  0
VERTEX
  8
gg1
 10
7.900000
 20
14.985000
  0
SEQEND
  8
gg1
  0
POLYLINE
  8
gg1
 62
1
 40
0.000000
 41
0.000000
 66
  1
  0
VERTEX
  8
gg1
 10
7.314000
 20
15.006000
  0
VERTEX
  8
gg1
 10
7.304000
 20
15.016000
  0
VERTEX
  8
gg1
 10
7.304000
 20
15.036000
  0
VERTEX
  8
gg1
 10
7.314000
 20
15.046000
  0
VERTEX
  8
gg1
 10
7.324000
 20
15.046000
  0
VERTEX
  8
gg1
 10
7.334000
 20
15.036000
  0
VERTEX
  8
gg1
 10
7.334000
 20
15.026000
  0
VERTEX
  8
gg1
 10
7.334000
 20
15.036000
  0
VERTEX
  8
gg1
 10
7.344000
 20
15.046000
  0
VERTEX
  8
gg1
 10
7.354000
 20
15.046000
  0
VERTEX
  8
gg1
 10
7.364000
 20
15.036000
  0
VERTEX
  8
gg1
 10
7.364000
 20
15.016000
  0
VERTEX
  8
gg1
 10
7.354000
 20
15.006000
  0
SEQEND
  8
gg1
  0
POLYLINE
  8
gg1
 62
1
 40
0.000000
 41
0.000000
 66
  1
  0
VERTEX
  8
gg1
 10
7.314000
 20
15.066000
  0
VERTEX
  8
gg1
 10
7.304000
 20
15.076000
  0
VERTEX
  8
gg1
 10
7.304000
 20
15.096000
  0
VERTEX
  8
gg1
 10
7.314000
 20
15.106000
  0
VERTEX
  8
gg1
 10
7.354000
 20
15.106000
  0
VERTEX
  8
gg1
 10
7.364000
 20
15.096000
  0
VERTEX
  8
gg1
 10
7.364000
 20
15.076000
  0
VERTEX
  8
gg1
 10
7.354000
 20
15.066000
  0
VERTEX
  8
gg1
 10
7.314000
 20
15.066000
  0
SEQEND
  8
gg1
  0
POLYLINE
  8
gg1
 62
1
 40
0.000000
 41
0.000000
 66
  1
  0
VERTEX
  8
gg1
 10
7.314000
 20
15.126000
  0
VERTEX
  8
gg1
 10
7.304000
 20
15.136000
  0
VERTEX
  8
gg1
 10
7.304000
 20
15.156000
  0
VERTEX
  8
gg1
 10
7.314000
 20
15.165900
  0
VERTEX
  8
gg1
 10
7.354000
 20
15.165900
  0
VERTEX
  8
gg1
 10
7.364000
 20
15.156000
  0
VERTEX
  8
gg1
 10
7.364000
 20
15.136000
  0
VERTEX
  8
gg1
 10
7.354000
 20
15.126000
  0
VERTEX
  8
gg1
 10
7.314000
 20
15.126000
  0
SEQEND
  8
gg1
  0
POLYLINE
  8
gg1
 62
1
 40
0.000000
 41
0.000000
 66
  1
  0
VERTEX
  8
gg1
 10
7.364000
 20
15.185900
  0
VERTEX
  8
gg1
 10
7.324000
 20
15.185900
  0
VERTEX
  8
gg1
 10
7.324000
 20
15.195900
  0
VERTEX
  8
gg1
 10
7.334000
 20
15.205900
  0
VERTEX
  8
gg1
 10
7.364000
 20
15.205900
  0
VERTEX
  8
gg1
 10
7.334000
 20
15.205900
  0
VERTEX
  8
gg1
 10
7.324000
 20
15.215900
  0
VERTEX
  8
gg1
 10
7.334000
 20
15.225900
  0
VERTEX
  8
gg1
 10
7.364000
 20
15.225900
  0
SEQEND
  8
gg1
  0
POLYLINE
  8
gg1
 62
1
 40
0.000000
 41
0.000000
 66
  1
  0
VERTEX
  8
gg1
 10
7.364000
 20
15.245900
  0
VERTEX
  8
gg1
 10
7.364000
 20
15.265900
  0
VERTEX
  8
gg1
 10
7.364000
 20
15.255900
  0
VERTEX
  8
gg1
 10
7.324000
 20
15.255900
  0
VERTEX
  8
gg1
 10
7.324000
 20
15.245900
  0
SEQEND
  8
gg1
  0
POLYLINE
  8
gg1
 62
1
 40
0.000000
 41
0.000000
 66
  1
  0
VERTEX
  8
gg1
 10
7.364000
 20
15.295900
  0
VERTEX
  8
gg1
 10
7.364000
 20
15.315900
  0
VERTEX
  8
gg1
 10
7.364000
 20
15.305900
  0
VERTEX
  8
gg1
 10
7.304000
 20
15.305900
  0
VERTEX
  8
gg1
 10
7.304000
 20
15.295900
  0
SEQEND
  8
gg1
  0
POLYLINE
  8
gg1
 62
1
 40
0.000000
 41
0.000000
 66
  1
  0
VERTEX
  8
gg1
 10
7.561000
 20
14.831000
  0
VERTEX
  8
gg1
 10
7.561000
 20
14.891000
  0
VERTEX
  8
gg1
 10
7.531000
 20
14.861000
  0
VERTEX
  8
gg1
 10
7.571000
 20
14.861000
  0
SEQEND
  8
gg1
  0
POLYLINE
  8
gg1
 62
1
 40
0.000000
 41
0.000000
 66
  1
  0
VERTEX
  8
gg1
 10
7.591000
 20
14.881000
  0
VERTEX
  8
gg1
 10
7.601000
 20
14.891000
  0
VERTEX
  8
gg1
 10
7.621000
 20
14.891000
  0
VERTEX
  8
gg1
 10
7.631000
 20
14.881000
  0
VERTEX
  8
gg1
 10
7.631000
 20
14.841000
  0
VERTEX
  8
gg1
 10
7.621000
 20
14.831000
  0
VERTEX
  8
gg1
 10
7.601000
 20
14.831000
  0
VERTEX
  8
gg1
 10
7.591000
 20
14.841000
  0
VERTEX
  8
gg1
 10
7.591000
 20
14.881000
  0
SEQEND
  8
gg1
  0
POLYLINE
  8
gg1
 62
1
 40
0.000000
 41
0.000000
 66
  1
  0
VERTEX
  8
gg1
 10
7.651000
 20
14.881000
  0
VERTEX
  8
gg1
 10
7.661000
 20
14.891000
  0
VERTEX
  8
gg1
 10
7.681000
 20
14.891000
  0
VERTEX
  8
gg1
 10
7.690900
 20
14.881000
  0
VERTEX
  8
gg1
 10
7.690900
 20
14.841000
  0
VERTEX
  8
gg1
 10
7.681000
 20
14.831000
  0
VERTEX
  8
gg1
 10
7.661000
 20
14.831000
  0
VERTEX
  8
gg1
 10
7.651000
 20
14.841000
  0
VERTEX
  8
gg1
 10
7.651000
 20
14.881000
  0
SEQEND
  8
gg1
  0
POLYLINE
  8
gg1
 62
1
 40
0.000000
 41
0.000000
 66
  1
  0
VERTEX
  8
gg1
 10
7.710900
 20
14.831000
  0
VERTEX
  8
gg1
 10
7.710900
 20
14.871000
  0
VERTEX
  8
gg1
 10
7.720900
 20
14.871000
  0
VERTEX
  8
gg1
 10
7.730900
 20
14.861000
  0
VERTEX
  8
gg1
 10
7.730900
 20
14.831000
  0
VERTEX
  8
gg1
 10
7.730900
 20
14.861000
  0
VERTEX
  8
gg1
 10
7.740900
 20
14.871000
  0
VERTEX
  8
gg1
 10
7.750900
 20
14.861000
  0
VERTEX
  8
gg1
 10
7.750900
 20
14.831000
  0
SEQEND
  8
gg1
  0
POLYLINE
  8
gg1
 62
1
 40
0.000000
 41
0.000000
 66
  1
  0
VERTEX
  8
gg1
 10
7.770900
 20
14.831000
  0
VERTEX
  8
gg1
 10
7.790900
 20
14.831000
  0
VERTEX
  8
gg1
 10
7.780900
 20
14.831000
  0
VERTEX
  8
gg1
 10
7.780900
 20
14.871000
  0
VERTEX
  8
gg1
 10
7.770900
 20
14.871000
  0
SEQEND
  8
gg1
  0
POLYLINE
  8
gg1
 62
1
 40
0.000000
 41
0.000000
 66
  1
  0
VERTEX
  8
gg1
 10
7.820900
 20
14.831000
  0
VERTEX
  8
gg1
 10
7.840900
 20
14.831000
  0
VERTEX
  8
gg1
 10
7.830900
 20
14.831000
  0
VERTEX
  8
gg1
 10
7.830900
 20
14.891000
  0
VERTEX
  8
gg1
 10
7.820900
 20
14.891000
  0
SEQEND
  8
gg1
  0
ENDSEC
  0
EOF
