  0
SECTION
  2
HEADER
  9
$EXTMIN
 10
187.274200
 20
377.469400
  9
$EXTMAX
 10
205.867000
 20
398.907000
  9
$LIMMIN
 10
187.274200
 20
377.469400
  9
$LIMMAX
 10
205.867000
 20
398.907000
  9
$FILLMODE
 70
  1
  0
ENDSEC
  0
SECTION
  2
TABLES
  0
TABLE
  2
LTYPE
 70
  1
  0
LTYPE
  2
CONTINUOUS
 70
 64
  3
Solid line
 72
 65
 73
  0
 40
0.0
  0
ENDTAB
  0
TABLE
  2
LAYER
 70
 1
  0
LAYER
  2
0
 70
  0
 62
7
  6
CONTINUOUS
  0
LAYER
  2
gg1
 70
  0
 62
1
  6
CONTINUOUS
  0
ENDTAB
  0
TABLE
  2
STYLE
 70
  1
  0
STYLE
  2
STANDARD
 70
  0
 40
0.0
 41
1.0
 50
0.0
 71
  0
 42
0.2
  3
txt
  4

  0
ENDTAB
  0
ENDSEC
  0
SECTION
  2
BLOCKS
  0
BLOCK
  8
0
  2
D10
 70
64
 10
0.0
 20
0.0
  3
D10
  0
CIRCLE
  8
0
 10
0.000000
 20
0.000000
 40
0.063500
 0
ENDBLK
  8
0
  0
BLOCK
  8
0
  2
D11
 70
64
 10
0.0
 20
0.0
  3
D11
  0
CIRCLE
  8
0
 10
0.000000
 20
0.000000
 40
0.127000
 0
ENDBLK
  8
0
  0
BLOCK
  8
0
  2
D12
 70
64
 10
0.0
 20
0.0
  3
D12
  0
CIRCLE
  8
0
 10
0.000000
 20
0.000000
 40
0.076200
 0
ENDBLK
  8
0
  0
ENDSEC
  0
SECTION
  2
ENTITIES
  0
POLYLINE
  8
gg1
 62
1
 40
0.000000
 41
0.000000
 66
  1
  0
VERTEX
  8
gg1
 10
205.740411
 20
381.000762
  0
VERTEX
  8
gg1
 10
205.740411
 20
398.780798
  0
SEQEND
  8
gg1
  0
POLYLINE
  8
gg1
 62
1
 40
0.000000
 41
0.000000
 66
  1
  0
VERTEX
  8
gg1
 10
190.500381
 20
381.000762
  0
VERTEX
  8
gg1
 10
190.500381
 20
398.780798
  0
VERTEX
  8
gg1
 10
205.740411
 20
398.780798
  0
SEQEND
  8
gg1
  0
POLYLINE
  8
gg1
 62
1
 40
0.000000
 41
0.000000
 66
  1
  0
VERTEX
  8
gg1
 10
190.500381
 20
381.000762
  0
VERTEX
  8
gg1
 10
205.740411
 20
381.000762
  0
SEQEND
  8
gg1
  0
POLYLINE
  8
gg1
 62
1
 40
0.000000
 41
0.000000
 66
  1
  0
VERTEX
  8
gg1
 10
191.262383
 20
382.270765
  0
VERTEX
  8
gg1
 10
192.278385
 20
382.270765
  0
SEQEND
  8
gg1
  0
POLYLINE
  8
gg1
 62
1
 40
0.000000
 41
0.000000
 66
  1
  0
VERTEX
  8
gg1
 10
191.770384
 20
381.762764
  0
VERTEX
  8
gg1
 10
191.770384
 20
382.778766
  0
SEQEND
  8
gg1
  0
POLYLINE
  8
gg1
 62
1
 40
0.000000
 41
0.000000
 66
  1
  0
VERTEX
  8
gg1
 10
191.262383
 20
384.810770
  0
VERTEX
  8
gg1
 10
192.278385
 20
384.810770
  0
SEQEND
  8
gg1
  0
POLYLINE
  8
gg1
 62
1
 40
0.000000
 41
0.000000
 66
  1
  0
VERTEX
  8
gg1
 10
191.770384
 20
384.302769
  0
VERTEX
  8
gg1
 10
191.770384
 20
385.318771
  0
SEQEND
  8
gg1
  0
POLYLINE
  8
gg1
 62
1
 40
0.000000
 41
0.000000
 66
  1
  0
VERTEX
  8
gg1
 10
191.262383
 20
397.510795
  0
VERTEX
  8
gg1
 10
192.278385
 20
397.510795
  0
SEQEND
  8
gg1
  0
POLYLINE
  8
gg1
 62
1
 40
0.000000
 41
0.000000
 66
  1
  0
VERTEX
  8
gg1
 10
191.770384
 20
397.002794
  0
VERTEX
  8
gg1
 10
191.770384
 20
398.018796
  0
SEQEND
  8
gg1
  0
POLYLINE
  8
gg1
 62
1
 40
0.000000
 41
0.000000
 66
  1
  0
VERTEX
  8
gg1
 10
191.262383
 20
394.970790
  0
VERTEX
  8
gg1
 10
192.278385
 20
394.970790
  0
SEQEND
  8
gg1
  0
POLYLINE
  8
gg1
 62
1
 40
0.000000
 41
0.000000
 66
  1
  0
VERTEX
  8
gg1
 10
191.770384
 20
394.462789
  0
VERTEX
  8
gg1
 10
191.770384
 20
395.478791
  0
SEQEND
  8
gg1
  0
POLYLINE
  8
gg1
 62
1
 40
0.000000
 41
0.000000
 66
  1
  0
VERTEX
  8
gg1
 10
191.262383
 20
392.430785
  0
VERTEX
  8
gg1
 10
192.278385
 20
392.430785
  0
SEQEND
  8
gg1
  0
POLYLINE
  8
gg1
 62
1
 40
0.000000
 41
0.000000
 66
  1
  0
VERTEX
  8
gg1
 10
191.770384
 20
391.922784
  0
VERTEX
  8
gg1
 10
191.770384
 20
392.938786
  0
SEQEND
  8
gg1
  0
POLYLINE
  8
gg1
 62
1
 40
0.000000
 41
0.000000
 66
  1
  0
VERTEX
  8
gg1
 10
191.262383
 20
389.890780
  0
VERTEX
  8
gg1
 10
192.278385
 20
389.890780
  0
SEQEND
  8
gg1
  0
POLYLINE
  8
gg1
 62
1
 40
0.000000
 41
0.000000
 66
  1
  0
VERTEX
  8
gg1
 10
191.770384
 20
389.382779
  0
VERTEX
  8
gg1
 10
191.770384
 20
390.398781
  0
SEQEND
  8
gg1
  0
POLYLINE
  8
gg1
 62
1
 40
0.000000
 41
0.000000
 66
  1
  0
VERTEX
  8
gg1
 10
191.262383
 20
387.350775
  0
VERTEX
  8
gg1
 10
192.278385
 20
387.350775
  0
SEQEND
  8
gg1
  0
POLYLINE
  8
gg1
 62
1
 40
0.000000
 41
0.000000
 66
  1
  0
VERTEX
  8
gg1
 10
191.770384
 20
386.842774
  0
VERTEX
  8
gg1
 10
191.770384
 20
387.858776
  0
SEQEND
  8
gg1
  0
POLYLINE
  8
gg1
 62
1
 40
0.000000
 41
0.000000
 66
  1
  0
VERTEX
  8
gg1
 10
203.962408
 20
382.270765
  0
VERTEX
  8
gg1
 10
204.978410
 20
382.270765
  0
SEQEND
  8
gg1
  0
POLYLINE
  8
gg1
 62
1
 40
0.000000
 41
0.000000
 66
  1
  0
VERTEX
  8
gg1
 10
204.470409
 20
381.762764
  0
VERTEX
  8
gg1
 10
204.470409
 20
382.778766
  0
SEQEND
  8
gg1
  0
POLYLINE
  8
gg1
 62
1
 40
0.000000
 41
0.000000
 66
  1
  0
VERTEX
  8
gg1
 10
203.962408
 20
384.810770
  0
VERTEX
  8
gg1
 10
204.978410
 20
384.810770
  0
SEQEND
  8
gg1
  0
POLYLINE
  8
gg1
 62
1
 40
0.000000
 41
0.000000
 66
  1
  0
VERTEX
  8
gg1
 10
204.470409
 20
384.302769
  0
VERTEX
  8
gg1
 10
204.470409
 20
385.318771
  0
SEQEND
  8
gg1
  0
POLYLINE
  8
gg1
 62
1
 40
0.000000
 41
0.000000
 66
  1
  0
VERTEX
  8
gg1
 10
203.962408
 20
387.350775
  0
VERTEX
  8
gg1
 10
204.978410
 20
387.350775
  0
SEQEND
  8
gg1
  0
POLYLINE
  8
gg1
 62
1
 40
0.000000
 41
0.000000
 66
  1
  0
VERTEX
  8
gg1
 10
204.470409
 20
386.842774
  0
VERTEX
  8
gg1
 10
204.470409
 20
387.858776
  0
SEQEND
  8
gg1
  0
POLYLINE
  8
gg1
 62
1
 40
0.000000
 41
0.000000
 66
  1
  0
VERTEX
  8
gg1
 10
203.962408
 20
389.890780
  0
VERTEX
  8
gg1
 10
204.978410
 20
389.890780
  0
SEQEND
  8
gg1
  0
POLYLINE
  8
gg1
 62
1
 40
0.000000
 41
0.000000
 66
  1
  0
VERTEX
  8
gg1
 10
204.470409
 20
389.382779
  0
VERTEX
  8
gg1
 10
204.470409
 20
390.398781
  0
SEQEND
  8
gg1
  0
POLYLINE
  8
gg1
 62
1
 40
0.000000
 41
0.000000
 66
  1
  0
VERTEX
  8
gg1
 10
203.962408
 20
392.430785
  0
VERTEX
  8
gg1
 10
204.978410
 20
392.430785
  0
SEQEND
  8
gg1
  0
POLYLINE
  8
gg1
 62
1
 40
0.000000
 41
0.000000
 66
  1
  0
VERTEX
  8
gg1
 10
204.470409
 20
391.922784
  0
VERTEX
  8
gg1
 10
204.470409
 20
392.938786
  0
SEQEND
  8
gg1
  0
POLYLINE
  8
gg1
 62
1
 40
0.000000
 41
0.000000
 66
  1
  0
VERTEX
  8
gg1
 10
203.962408
 20
394.970790
  0
VERTEX
  8
gg1
 10
204.978410
 20
394.970790
  0
SEQEND
  8
gg1
  0
POLYLINE
  8
gg1
 62
1
 40
0.000000
 41
0.000000
 66
  1
  0
VERTEX
  8
gg1
 10
204.470409
 20
394.462789
  0
VERTEX
  8
gg1
 10
204.470409
 20
395.478791
  0
SEQEND
  8
gg1
  0
POLYLINE
  8
gg1
 62
1
 40
0.000000
 41
0.000000
 66
  1
  0
VERTEX
  8
gg1
 10
203.962408
 20
397.510795
  0
VERTEX
  8
gg1
 10
204.978410
 20
397.510795
  0
SEQEND
  8
gg1
  0
POLYLINE
  8
gg1
 62
1
 40
0.000000
 41
0.000000
 66
  1
  0
VERTEX
  8
gg1
 10
204.470409
 20
397.002794
  0
VERTEX
  8
gg1
 10
204.470409
 20
398.018796
  0
SEQEND
  8
gg1
  0
POLYLINE
  8
gg1
 62
1
 40
0.000000
 41
0.000000
 66
  1
  0
VERTEX
  8
gg1
 10
199.263399
 20
394.904990
  0
VERTEX
  8
gg1
 10
199.771400
 20
394.904990
  0
SEQEND
  8
gg1
  0
POLYLINE
  8
gg1
 62
1
 40
0.000000
 41
0.000000
 66
  1
  0
VERTEX
  8
gg1
 10
199.517399
 20
394.650989
  0
VERTEX
  8
gg1
 10
199.517399
 20
395.158990
  0
SEQEND
  8
gg1
  0
POLYLINE
  8
gg1
 62
1
 40
0.000000
 41
0.000000
 66
  1
  0
VERTEX
  8
gg1
 10
187.664075
 20
381.889764
  0
VERTEX
  8
gg1
 10
187.960376
 20
381.000762
  0
VERTEX
  8
gg1
 10
188.256677
 20
381.889764
  0
SEQEND
  8
gg1
  0
POLYLINE
  8
gg1
 62
1
 40
0.000000
 41
0.000000
 66
  1
  0
VERTEX
  8
gg1
 10
187.960376
 20
398.780798
  0
VERTEX
  8
gg1
 10
188.256677
 20
397.891796
  0
SEQEND
  8
gg1
  0
POLYLINE
  8
gg1
 62
1
 40
0.000000
 41
0.000000
 66
  1
  0
VERTEX
  8
gg1
 10
187.664075
 20
397.891796
  0
VERTEX
  8
gg1
 10
187.960376
 20
398.780798
  0
SEQEND
  8
gg1
  0
POLYLINE
  8
gg1
 62
1
 40
0.000000
 41
0.000000
 66
  1
  0
VERTEX
  8
gg1
 10
187.960376
 20
381.000762
  0
VERTEX
  8
gg1
 10
187.960376
 20
385.142270
  0
SEQEND
  8
gg1
  0
POLYLINE
  8
gg1
 62
1
 40
0.000000
 41
0.000000
 66
  1
  0
VERTEX
  8
gg1
 10
187.960376
 20
393.826488
  0
VERTEX
  8
gg1
 10
187.960376
 20
398.780798
  0
SEQEND
  8
gg1
  0
POLYLINE
  8
gg1
 62
1
 40
0.000000
 41
0.000000
 66
  1
  0
VERTEX
  8
gg1
 10
187.706375
 20
381.000762
  0
VERTEX
  8
gg1
 10
189.801880
 20
381.000762
  0
SEQEND
  8
gg1
  0
POLYLINE
  8
gg1
 62
1
 40
0.000000
 41
0.000000
 66
  1
  0
VERTEX
  8
gg1
 10
187.706375
 20
398.780798
  0
VERTEX
  8
gg1
 10
189.801880
 20
398.780798
  0
SEQEND
  8
gg1
  0
POLYLINE
  8
gg1
 62
1
 40
0.000000
 41
0.000000
 66
  1
  0
VERTEX
  8
gg1
 10
190.500381
 20
378.460757
  0
VERTEX
  8
gg1
 10
191.389383
 20
378.757058
  0
SEQEND
  8
gg1
  0
POLYLINE
  8
gg1
 62
1
 40
0.000000
 41
0.000000
 66
  1
  0
VERTEX
  8
gg1
 10
190.500381
 20
378.460757
  0
VERTEX
  8
gg1
 10
191.389383
 20
378.164456
  0
SEQEND
  8
gg1
  0
POLYLINE
  8
gg1
 62
1
 40
0.000000
 41
0.000000
 66
  1
  0
VERTEX
  8
gg1
 10
204.851410
 20
378.164456
  0
VERTEX
  8
gg1
 10
205.740411
 20
378.460757
  0
SEQEND
  8
gg1
  0
POLYLINE
  8
gg1
 62
1
 40
0.000000
 41
0.000000
 66
  1
  0
VERTEX
  8
gg1
 10
204.851410
 20
378.757058
  0
VERTEX
  8
gg1
 10
205.740411
 20
378.460757
  0
SEQEND
  8
gg1
  0
POLYLINE
  8
gg1
 62
1
 40
0.000000
 41
0.000000
 66
  1
  0
VERTEX
  8
gg1
 10
190.500381
 20
378.460757
  0
VERTEX
  8
gg1
 10
193.371887
 20
378.460757
  0
SEQEND
  8
gg1
  0
POLYLINE
  8
gg1
 62
1
 40
0.000000
 41
0.000000
 66
  1
  0
VERTEX
  8
gg1
 10
202.056104
 20
378.460757
  0
VERTEX
  8
gg1
 10
205.740411
 20
378.460757
  0
SEQEND
  8
gg1
  0
POLYLINE
  8
gg1
 62
1
 40
0.000000
 41
0.000000
 66
  1
  0
VERTEX
  8
gg1
 10
190.500381
 20
378.206756
  0
VERTEX
  8
gg1
 10
190.500381
 20
380.302261
  0
SEQEND
  8
gg1
  0
POLYLINE
  8
gg1
 62
1
 40
0.000000
 41
0.000000
 66
  1
  0
VERTEX
  8
gg1
 10
205.740411
 20
378.206756
  0
VERTEX
  8
gg1
 10
205.740411
 20
380.302261
  0
SEQEND
  8
gg1
  0
POLYLINE
  8
gg1
 62
1
 40
0.000000
 41
0.000000
 66
  1
  0
VERTEX
  8
gg1
 10
187.350975
 20
385.548671
  0
VERTEX
  8
gg1
 10
187.350975
 20
386.564373
  0
VERTEX
  8
gg1
 10
187.604975
 20
386.564373
  0
VERTEX
  8
gg1
 10
188.620577
 20
385.548671
  0
VERTEX
  8
gg1
 10
188.874478
 20
385.548671
  0
SEQEND
  8
gg1
  0
POLYLINE
  8
gg1
 62
1
 40
0.000000
 41
0.000000
 66
  1
  0
VERTEX
  8
gg1
 10
187.604975
 20
387.072174
  0
VERTEX
  8
gg1
 10
187.350975
 20
387.326075
  0
VERTEX
  8
gg1
 10
187.350975
 20
387.833976
  0
VERTEX
  8
gg1
 10
187.604975
 20
388.087876
  0
VERTEX
  8
gg1
 10
188.620577
 20
388.087876
  0
VERTEX
  8
gg1
 10
188.874478
 20
387.833976
  0
VERTEX
  8
gg1
 10
188.874478
 20
387.326075
  0
VERTEX
  8
gg1
 10
188.620577
 20
387.072174
  0
VERTEX
  8
gg1
 10
187.604975
 20
387.072174
  0
SEQEND
  8
gg1
  0
POLYLINE
  8
gg1
 62
1
 40
0.000000
 41
0.000000
 66
  1
  0
VERTEX
  8
gg1
 10
187.604975
 20
388.595677
  0
VERTEX
  8
gg1
 10
187.350975
 20
388.849578
  0
VERTEX
  8
gg1
 10
187.350975
 20
389.357479
  0
VERTEX
  8
gg1
 10
187.604975
 20
389.611379
  0
VERTEX
  8
gg1
 10
188.620577
 20
389.611379
  0
VERTEX
  8
gg1
 10
188.874478
 20
389.357479
  0
VERTEX
  8
gg1
 10
188.874478
 20
388.849578
  0
VERTEX
  8
gg1
 10
188.620577
 20
388.595677
  0
VERTEX
  8
gg1
 10
187.604975
 20
388.595677
  0
SEQEND
  8
gg1
  0
POLYLINE
  8
gg1
 62
1
 40
0.000000
 41
0.000000
 66
  1
  0
VERTEX
  8
gg1
 10
188.874478
 20
390.119180
  0
VERTEX
  8
gg1
 10
187.858876
 20
390.119180
  0
VERTEX
  8
gg1
 10
187.858876
 20
390.373081
  0
VERTEX
  8
gg1
 10
188.112776
 20
390.627081
  0
VERTEX
  8
gg1
 10
188.874478
 20
390.627081
  0
VERTEX
  8
gg1
 10
188.112776
 20
390.627081
  0
VERTEX
  8
gg1
 10
187.858876
 20
390.880982
  0
VERTEX
  8
gg1
 10
188.112776
 20
391.134882
  0
VERTEX
  8
gg1
 10
188.874478
 20
391.134882
  0
SEQEND
  8
gg1
  0
POLYLINE
  8
gg1
 62
1
 40
0.000000
 41
0.000000
 66
  1
  0
VERTEX
  8
gg1
 10
188.874478
 20
391.642683
  0
VERTEX
  8
gg1
 10
188.874478
 20
392.150484
  0
VERTEX
  8
gg1
 10
188.874478
 20
391.896584
  0
VERTEX
  8
gg1
 10
187.858876
 20
391.896584
  0
VERTEX
  8
gg1
 10
187.858876
 20
391.642683
  0
SEQEND
  8
gg1
  0
POLYLINE
  8
gg1
 62
1
 40
0.000000
 41
0.000000
 66
  1
  0
VERTEX
  8
gg1
 10
188.874478
 20
392.912286
  0
VERTEX
  8
gg1
 10
188.874478
 20
393.420087
  0
VERTEX
  8
gg1
 10
188.874478
 20
393.166186
  0
VERTEX
  8
gg1
 10
187.350975
 20
393.166186
  0
VERTEX
  8
gg1
 10
187.350975
 20
392.912286
  0
SEQEND
  8
gg1
  0
POLYLINE
  8
gg1
 62
1
 40
0.000000
 41
0.000000
 66
  1
  0
VERTEX
  8
gg1
 10
194.793990
 20
379.070058
  0
VERTEX
  8
gg1
 10
194.286089
 20
378.816158
  0
VERTEX
  8
gg1
 10
193.778288
 20
378.308357
  0
VERTEX
  8
gg1
 10
193.778288
 20
377.800556
  0
VERTEX
  8
gg1
 10
194.032188
 20
377.546555
  0
VERTEX
  8
gg1
 10
194.539989
 20
377.546555
  0
VERTEX
  8
gg1
 10
194.793990
 20
377.800556
  0
VERTEX
  8
gg1
 10
194.793990
 20
378.054456
  0
VERTEX
  8
gg1
 10
194.539989
 20
378.308357
  0
VERTEX
  8
gg1
 10
193.778288
 20
378.308357
  0
SEQEND
  8
gg1
  0
POLYLINE
  8
gg1
 62
1
 40
0.000000
 41
0.000000
 66
  1
  0
VERTEX
  8
gg1
 10
195.301791
 20
378.816158
  0
VERTEX
  8
gg1
 10
195.555691
 20
379.070058
  0
VERTEX
  8
gg1
 10
196.063592
 20
379.070058
  0
VERTEX
  8
gg1
 10
196.317493
 20
378.816158
  0
VERTEX
  8
gg1
 10
196.317493
 20
377.800556
  0
VERTEX
  8
gg1
 10
196.063592
 20
377.546555
  0
VERTEX
  8
gg1
 10
195.555691
 20
377.546555
  0
VERTEX
  8
gg1
 10
195.301791
 20
377.800556
  0
VERTEX
  8
gg1
 10
195.301791
 20
378.816158
  0
SEQEND
  8
gg1
  0
POLYLINE
  8
gg1
 62
1
 40
0.000000
 41
0.000000
 66
  1
  0
VERTEX
  8
gg1
 10
196.825294
 20
378.816158
  0
VERTEX
  8
gg1
 10
197.079194
 20
379.070058
  0
VERTEX
  8
gg1
 10
197.587095
 20
379.070058
  0
VERTEX
  8
gg1
 10
197.840996
 20
378.816158
  0
VERTEX
  8
gg1
 10
197.840996
 20
377.800556
  0
VERTEX
  8
gg1
 10
197.587095
 20
377.546555
  0
VERTEX
  8
gg1
 10
197.079194
 20
377.546555
  0
VERTEX
  8
gg1
 10
196.825294
 20
377.800556
  0
VERTEX
  8
gg1
 10
196.825294
 20
378.816158
  0
SEQEND
  8
gg1
  0
POLYLINE
  8
gg1
 62
1
 40
0.000000
 41
0.000000
 66
  1
  0
VERTEX
  8
gg1
 10
198.348797
 20
377.546555
  0
VERTEX
  8
gg1
 10
198.348797
 20
378.562257
  0
VERTEX
  8
gg1
 10
198.602697
 20
378.562257
  0
VERTEX
  8
gg1
 10
198.856598
 20
378.308357
  0
VERTEX
  8
gg1
 10
198.856598
 20
377.546555
  0
VERTEX
  8
gg1
 10
198.856598
 20
378.308357
  0
VERTEX
  8
gg1
 10
199.110598
 20
378.562257
  0
VERTEX
  8
gg1
 10
199.364499
 20
378.308357
  0
VERTEX
  8
gg1
 10
199.364499
 20
377.546555
  0
SEQEND
  8
gg1
  0
POLYLINE
  8
gg1
 62
1
 40
0.000000
 41
0.000000
 66
  1
  0
VERTEX
  8
gg1
 10
199.872300
 20
377.546555
  0
VERTEX
  8
gg1
 10
200.380101
 20
377.546555
  0
VERTEX
  8
gg1
 10
200.126200
 20
377.546555
  0
VERTEX
  8
gg1
 10
200.126200
 20
378.562257
  0
VERTEX
  8
gg1
 10
199.872300
 20
378.562257
  0
SEQEND
  8
gg1
  0
POLYLINE
  8
gg1
 62
1
 40
0.000000
 41
0.000000
 66
  1
  0
VERTEX
  8
gg1
 10
201.141902
 20
377.546555
  0
VERTEX
  8
gg1
 10
201.649703
 20
377.546555
  0
VERTEX
  8
gg1
 10
201.395803
 20
377.546555
  0
VERTEX
  8
gg1
 10
201.395803
 20
379.070058
  0
VERTEX
  8
gg1
 10
201.141902
 20
379.070058
  0
SEQEND
  8
gg1
  0
ENDSEC
  0
EOF
