  0
SECTION
  2
HEADER
  9
$EXTMIN
 10
7.296000
 20
14.793000
  9
$EXTMAX
 10
7.805000
 20
15.455000
  9
$LIMMIN
 10
7.296000
 20
14.793000
  9
$LIMMAX
 10
7.805000
 20
15.455000
  9
$FILLMODE
 70
  1
  0
ENDSEC
  0
SECTION
  2
TABLES
  0
TABLE
  2
LTYPE
 70
  1
  0
LTYPE
  2
CONTINUOUS
 70
 64
  3
Solid line
 72
 65
 73
  0
 40
0.0
  0
ENDTAB
  0
TABLE
  2
LAYER
 70
 1
  0
LAYER
  2
0
 70
  0
 62
7
  6
CONTINUOUS
  0
LAYER
  2
gg1
 70
  0
 62
1
  6
CONTINUOUS
  0
ENDTAB
  0
TABLE
  2
STYLE
 70
  1
  0
STYLE
  2
STANDARD
 70
  0
 40
0.0
 41
1.0
 50
0.0
 71
  0
 42
0.2
  3
txt
  4

  0
ENDTAB
  0
ENDSEC
  0
SECTION
  2
BLOCKS
  0
BLOCK
  8
0
  2
D10
 70
64
 10
0.0
 20
0.0
  3
D10
  0
CIRCLE
  8
0
 10
0.000000
 20
0.000000
 40
0.005000
 0
ENDBLK
  8
0
  0
BLOCK
  8
0
  2
D11
 70
64
 10
0.0
 20
0.0
  3
D11
  0
CIRCLE
  8
0
 10
0.000000
 20
0.000000
 40
0.003000
 0
ENDBLK
  8
0
  0
BLOCK
  8
0
  2
D12
 70
64
 10
0.0
 20
0.0
  3
D12
  0
CIRCLE
  8
0
 10
0.000000
 20
0.000000
 40
0.002500
 0
ENDBLK
  8
0
  0
ENDSEC
  0
SECTION
  2
ENTITIES
  0
POLYLINE
  8
gg1
 62
1
 40
0.000000
 41
0.000000
 66
  1
  0
VERTEX
  8
gg1
 10
7.390000
 20
15.000000
  0
VERTEX
  8
gg1
 10
7.485000
 20
15.000000
  0
SEQEND
  8
gg1
  0
POLYLINE
  8
gg1
 62
1
 40
0.000000
 41
0.000000
 66
  1
  0
VERTEX
  8
gg1
 10
7.390000
 20
15.450000
  0
VERTEX
  8
gg1
 10
7.485000
 20
15.450000
  0
SEQEND
  8
gg1
  0
POLYLINE
  8
gg1
 62
1
 40
0.000000
 41
0.000000
 66
  1
  0
VERTEX
  8
gg1
 10
7.400000
 20
15.000000
  0
VERTEX
  8
gg1
 10
7.400000
 20
15.225000
  0
VERTEX
  8
gg1
 10
7.400000
 20
15.450000
  0
SEQEND
  8
gg1
  0
POLYLINE
  8
gg1
 62
1
 40
0.000000
 41
0.000000
 66
  1
  0
VERTEX
  8
gg1
 10
7.400000
 20
15.000000
  0
VERTEX
  8
gg1
 10
7.420000
 20
15.060000
  0
SEQEND
  8
gg1
  0
POLYLINE
  8
gg1
 62
1
 40
0.000000
 41
0.000000
 66
  1
  0
VERTEX
  8
gg1
 10
7.380000
 20
15.060000
  0
VERTEX
  8
gg1
 10
7.400000
 20
15.000000
  0
SEQEND
  8
gg1
  0
POLYLINE
  8
gg1
 62
1
 40
0.000000
 41
0.000000
 66
  1
  0
VERTEX
  8
gg1
 10
7.380000
 20
15.390000
  0
VERTEX
  8
gg1
 10
7.400000
 20
15.450000
  0
VERTEX
  8
gg1
 10
7.420000
 20
15.390000
  0
SEQEND
  8
gg1
  0
POLYLINE
  8
gg1
 62
1
 40
0.000000
 41
0.000000
 66
  1
  0
VERTEX
  8
gg1
 10
7.800000
 20
14.890000
  0
VERTEX
  8
gg1
 10
7.800000
 20
14.985000
  0
SEQEND
  8
gg1
  0
POLYLINE
  8
gg1
 62
1
 40
0.000000
 41
0.000000
 66
  1
  0
VERTEX
  8
gg1
 10
7.500000
 20
14.890000
  0
VERTEX
  8
gg1
 10
7.500000
 20
14.985000
  0
SEQEND
  8
gg1
  0
POLYLINE
  8
gg1
 62
1
 40
0.000000
 41
0.000000
 66
  1
  0
VERTEX
  8
gg1
 10
7.650000
 20
14.900000
  0
VERTEX
  8
gg1
 10
7.800000
 20
14.900000
  0
SEQEND
  8
gg1
  0
POLYLINE
  8
gg1
 62
1
 40
0.000000
 41
0.000000
 66
  1
  0
VERTEX
  8
gg1
 10
7.500000
 20
14.900000
  0
VERTEX
  8
gg1
 10
7.650000
 20
14.900000
  0
SEQEND
  8
gg1
  0
POLYLINE
  8
gg1
 62
1
 40
0.000000
 41
0.000000
 66
  1
  0
VERTEX
  8
gg1
 10
7.740000
 20
14.920000
  0
VERTEX
  8
gg1
 10
7.800000
 20
14.900000
  0
SEQEND
  8
gg1
  0
POLYLINE
  8
gg1
 62
1
 40
0.000000
 41
0.000000
 66
  1
  0
VERTEX
  8
gg1
 10
7.740000
 20
14.880000
  0
VERTEX
  8
gg1
 10
7.800000
 20
14.900000
  0
SEQEND
  8
gg1
  0
POLYLINE
  8
gg1
 62
1
 40
0.000000
 41
0.000000
 66
  1
  0
VERTEX
  8
gg1
 10
7.500000
 20
14.900000
  0
VERTEX
  8
gg1
 10
7.560000
 20
14.880000
  0
SEQEND
  8
gg1
  0
POLYLINE
  8
gg1
 62
1
 40
0.000000
 41
0.000000
 66
  1
  0
VERTEX
  8
gg1
 10
7.500000
 20
14.900000
  0
VERTEX
  8
gg1
 10
7.560000
 20
14.920000
  0
SEQEND
  8
gg1
  0
POLYLINE
  8
gg1
 62
1
 40
0.000000
 41
0.000000
 66
  1
  0
VERTEX
  8
gg1
 10
7.500000
 20
15.000000
  0
VERTEX
  8
gg1
 10
7.800000
 20
15.000000
  0
VERTEX
  8
gg1
 10
7.800000
 20
15.450000
  0
VERTEX
  8
gg1
 10
7.800000
 20
15.450000
  0
SEQEND
  8
gg1
  0
POLYLINE
  8
gg1
 62
1
 40
0.000000
 41
0.000000
 66
  1
  0
VERTEX
  8
gg1
 10
7.500000
 20
15.450000
  0
VERTEX
  8
gg1
 10
7.800000
 20
15.450000
  0
SEQEND
  8
gg1
  0
POLYLINE
  8
gg1
 62
1
 40
0.000000
 41
0.000000
 66
  1
  0
VERTEX
  8
gg1
 10
7.500000
 20
15.450000
  0
VERTEX
  8
gg1
 10
7.500000
 20
15.450000
  0
SEQEND
  8
gg1
  0
POLYLINE
  8
gg1
 62
1
 40
0.000000
 41
0.000000
 66
  1
  0
VERTEX
  8
gg1
 10
7.500000
 20
15.000000
  0
VERTEX
  8
gg1
 10
7.500000
 20
15.450000
  0
SEQEND
  8
gg1
  0
POLYLINE
  8
gg1
 62
1
 40
0.000000
 41
0.000000
 66
  1
  0
VERTEX
  8
gg1
 10
7.359000
 20
15.096000
  0
VERTEX
  8
gg1
 10
7.299000
 20
15.096000
  0
VERTEX
  8
gg1
 10
7.329000
 20
15.066000
  0
VERTEX
  8
gg1
 10
7.329000
 20
15.106000
  0
SEQEND
  8
gg1
  0
POLYLINE
  8
gg1
 62
1
 40
0.000000
 41
0.000000
 66
  1
  0
VERTEX
  8
gg1
 10
7.299000
 20
15.166000
  0
VERTEX
  8
gg1
 10
7.299000
 20
15.126000
  0
VERTEX
  8
gg1
 10
7.329000
 20
15.126000
  0
VERTEX
  8
gg1
 10
7.319000
 20
15.146000
  0
VERTEX
  8
gg1
 10
7.319000
 20
15.156000
  0
VERTEX
  8
gg1
 10
7.329000
 20
15.166000
  0
VERTEX
  8
gg1
 10
7.349000
 20
15.166000
  0
VERTEX
  8
gg1
 10
7.359000
 20
15.156000
  0
VERTEX
  8
gg1
 10
7.359000
 20
15.136000
  0
VERTEX
  8
gg1
 10
7.349000
 20
15.126000
  0
SEQEND
  8
gg1
  0
POLYLINE
  8
gg1
 62
1
 40
0.000000
 41
0.000000
 66
  1
  0
VERTEX
  8
gg1
 10
7.309000
 20
15.186000
  0
VERTEX
  8
gg1
 10
7.299000
 20
15.196000
  0
VERTEX
  8
gg1
 10
7.299000
 20
15.216000
  0
VERTEX
  8
gg1
 10
7.309000
 20
15.225900
  0
VERTEX
  8
gg1
 10
7.349000
 20
15.225900
  0
VERTEX
  8
gg1
 10
7.359000
 20
15.216000
  0
VERTEX
  8
gg1
 10
7.359000
 20
15.196000
  0
VERTEX
  8
gg1
 10
7.349000
 20
15.186000
  0
VERTEX
  8
gg1
 10
7.309000
 20
15.186000
  0
SEQEND
  8
gg1
  0
POLYLINE
  8
gg1
 62
1
 40
0.000000
 41
0.000000
 66
  1
  0
VERTEX
  8
gg1
 10
7.359000
 20
15.245900
  0
VERTEX
  8
gg1
 10
7.319000
 20
15.245900
  0
VERTEX
  8
gg1
 10
7.319000
 20
15.255900
  0
VERTEX
  8
gg1
 10
7.329000
 20
15.265900
  0
VERTEX
  8
gg1
 10
7.359000
 20
15.265900
  0
VERTEX
  8
gg1
 10
7.329000
 20
15.265900
  0
VERTEX
  8
gg1
 10
7.319000
 20
15.275900
  0
VERTEX
  8
gg1
 10
7.329000
 20
15.285900
  0
VERTEX
  8
gg1
 10
7.359000
 20
15.285900
  0
SEQEND
  8
gg1
  0
POLYLINE
  8
gg1
 62
1
 40
0.000000
 41
0.000000
 66
  1
  0
VERTEX
  8
gg1
 10
7.359000
 20
15.305900
  0
VERTEX
  8
gg1
 10
7.359000
 20
15.325900
  0
VERTEX
  8
gg1
 10
7.359000
 20
15.315900
  0
VERTEX
  8
gg1
 10
7.319000
 20
15.315900
  0
VERTEX
  8
gg1
 10
7.319000
 20
15.305900
  0
SEQEND
  8
gg1
  0
POLYLINE
  8
gg1
 62
1
 40
0.000000
 41
0.000000
 66
  1
  0
VERTEX
  8
gg1
 10
7.359000
 20
15.355900
  0
VERTEX
  8
gg1
 10
7.359000
 20
15.375900
  0
VERTEX
  8
gg1
 10
7.359000
 20
15.365900
  0
VERTEX
  8
gg1
 10
7.299000
 20
15.365900
  0
VERTEX
  8
gg1
 10
7.299000
 20
15.355900
  0
SEQEND
  8
gg1
  0
POLYLINE
  8
gg1
 62
1
 40
0.000000
 41
0.000000
 66
  1
  0
VERTEX
  8
gg1
 10
7.486000
 20
14.846000
  0
VERTEX
  8
gg1
 10
7.496000
 20
14.856000
  0
VERTEX
  8
gg1
 10
7.516000
 20
14.856000
  0
VERTEX
  8
gg1
 10
7.526000
 20
14.846000
  0
VERTEX
  8
gg1
 10
7.526000
 20
14.836000
  0
VERTEX
  8
gg1
 10
7.516000
 20
14.826000
  0
VERTEX
  8
gg1
 10
7.506000
 20
14.826000
  0
VERTEX
  8
gg1
 10
7.516000
 20
14.826000
  0
VERTEX
  8
gg1
 10
7.526000
 20
14.816000
  0
VERTEX
  8
gg1
 10
7.526000
 20
14.806000
  0
VERTEX
  8
gg1
 10
7.516000
 20
14.796000
  0
VERTEX
  8
gg1
 10
7.496000
 20
14.796000
  0
VERTEX
  8
gg1
 10
7.486000
 20
14.806000
  0
SEQEND
  8
gg1
  0
POLYLINE
  8
gg1
 62
1
 40
0.000000
 41
0.000000
 66
  1
  0
VERTEX
  8
gg1
 10
7.546000
 20
14.846000
  0
VERTEX
  8
gg1
 10
7.556000
 20
14.856000
  0
VERTEX
  8
gg1
 10
7.576000
 20
14.856000
  0
VERTEX
  8
gg1
 10
7.586000
 20
14.846000
  0
VERTEX
  8
gg1
 10
7.586000
 20
14.806000
  0
VERTEX
  8
gg1
 10
7.576000
 20
14.796000
  0
VERTEX
  8
gg1
 10
7.556000
 20
14.796000
  0
VERTEX
  8
gg1
 10
7.546000
 20
14.806000
  0
VERTEX
  8
gg1
 10
7.546000
 20
14.846000
  0
SEQEND
  8
gg1
  0
POLYLINE
  8
gg1
 62
1
 40
0.000000
 41
0.000000
 66
  1
  0
VERTEX
  8
gg1
 10
7.606000
 20
14.846000
  0
VERTEX
  8
gg1
 10
7.616000
 20
14.856000
  0
VERTEX
  8
gg1
 10
7.636000
 20
14.856000
  0
VERTEX
  8
gg1
 10
7.645900
 20
14.846000
  0
VERTEX
  8
gg1
 10
7.645900
 20
14.806000
  0
VERTEX
  8
gg1
 10
7.636000
 20
14.796000
  0
VERTEX
  8
gg1
 10
7.616000
 20
14.796000
  0
VERTEX
  8
gg1
 10
7.606000
 20
14.806000
  0
VERTEX
  8
gg1
 10
7.606000
 20
14.846000
  0
SEQEND
  8
gg1
  0
POLYLINE
  8
gg1
 62
1
 40
0.000000
 41
0.000000
 66
  1
  0
VERTEX
  8
gg1
 10
7.665900
 20
14.796000
  0
VERTEX
  8
gg1
 10
7.665900
 20
14.836000
  0
VERTEX
  8
gg1
 10
7.675900
 20
14.836000
  0
VERTEX
  8
gg1
 10
7.685900
 20
14.826000
  0
VERTEX
  8
gg1
 10
7.685900
 20
14.796000
  0
VERTEX
  8
gg1
 10
7.685900
 20
14.826000
  0
VERTEX
  8
gg1
 10
7.695900
 20
14.836000
  0
VERTEX
  8
gg1
 10
7.705900
 20
14.826000
  0
VERTEX
  8
gg1
 10
7.705900
 20
14.796000
  0
SEQEND
  8
gg1
  0
POLYLINE
  8
gg1
 62
1
 40
0.000000
 41
0.000000
 66
  1
  0
VERTEX
  8
gg1
 10
7.725900
 20
14.796000
  0
VERTEX
  8
gg1
 10
7.745900
 20
14.796000
  0
VERTEX
  8
gg1
 10
7.735900
 20
14.796000
  0
VERTEX
  8
gg1
 10
7.735900
 20
14.836000
  0
VERTEX
  8
gg1
 10
7.725900
 20
14.836000
  0
SEQEND
  8
gg1
  0
POLYLINE
  8
gg1
 62
1
 40
0.000000
 41
0.000000
 66
  1
  0
VERTEX
  8
gg1
 10
7.775900
 20
14.796000
  0
VERTEX
  8
gg1
 10
7.795900
 20
14.796000
  0
VERTEX
  8
gg1
 10
7.785900
 20
14.796000
  0
VERTEX
  8
gg1
 10
7.785900
 20
14.856000
  0
VERTEX
  8
gg1
 10
7.775900
 20
14.856000
  0
SEQEND
  8
gg1
  0
POLYLINE
  8
gg1
 62
1
 40
0.000000
 41
0.000000
 66
  1
  0
VERTEX
  8
gg1
 10
7.730000
 20
15.050000
  0
VERTEX
  8
gg1
 10
7.770000
 20
15.050000
  0
SEQEND
  8
gg1
  0
POLYLINE
  8
gg1
 62
1
 40
0.000000
 41
0.000000
 66
  1
  0
VERTEX
  8
gg1
 10
7.750000
 20
15.030000
  0
VERTEX
  8
gg1
 10
7.750000
 20
15.070000
  0
SEQEND
  8
gg1
  0
POLYLINE
  8
gg1
 62
1
 40
0.000000
 41
0.000000
 66
  1
  0
VERTEX
  8
gg1
 10
7.630000
 20
15.050000
  0
VERTEX
  8
gg1
 10
7.670000
 20
15.050000
  0
SEQEND
  8
gg1
  0
POLYLINE
  8
gg1
 62
1
 40
0.000000
 41
0.000000
 66
  1
  0
VERTEX
  8
gg1
 10
7.650000
 20
15.030000
  0
VERTEX
  8
gg1
 10
7.650000
 20
15.070000
  0
SEQEND
  8
gg1
  0
POLYLINE
  8
gg1
 62
1
 40
0.000000
 41
0.000000
 66
  1
  0
VERTEX
  8
gg1
 10
7.530000
 20
15.050000
  0
VERTEX
  8
gg1
 10
7.570000
 20
15.050000
  0
SEQEND
  8
gg1
  0
POLYLINE
  8
gg1
 62
1
 40
0.000000
 41
0.000000
 66
  1
  0
VERTEX
  8
gg1
 10
7.550000
 20
15.030000
  0
VERTEX
  8
gg1
 10
7.550000
 20
15.070000
  0
SEQEND
  8
gg1
  0
ENDSEC
  0
EOF
