  0
SECTION
  2
HEADER
  9
$EXTMIN
 10
185.572400
 20
377.977400
  9
$EXTMAX
 10
205.867000
 20
391.287000
  9
$LIMMIN
 10
185.572400
 20
377.977400
  9
$LIMMAX
 10
205.867000
 20
391.287000
  9
$FILLMODE
 70
  1
  0
ENDSEC
  0
SECTION
  2
TABLES
  0
TABLE
  2
LTYPE
 70
  1
  0
LTYPE
  2
CONTINUOUS
 70
 64
  3
Solid line
 72
 65
 73
  0
 40
0.0
  0
ENDTAB
  0
TABLE
  2
LAYER
 70
 1
  0
LAYER
  2
0
 70
  0
 62
7
  6
CONTINUOUS
  0
LAYER
  2
gg1
 70
  0
 62
1
  6
CONTINUOUS
  0
ENDTAB
  0
TABLE
  2
STYLE
 70
  1
  0
STYLE
  2
STANDARD
 70
  0
 40
0.0
 41
1.0
 50
0.0
 71
  0
 42
0.2
  3
txt
  4

  0
ENDTAB
  0
ENDSEC
  0
SECTION
  2
BLOCKS
  0
BLOCK
  8
0
  2
D10
 70
64
 10
0.0
 20
0.0
  3
D10
  0
CIRCLE
  8
0
 10
0.000000
 20
0.000000
 40
0.063500
 0
ENDBLK
  8
0
  0
BLOCK
  8
0
  2
D11
 70
64
 10
0.0
 20
0.0
  3
D11
  0
CIRCLE
  8
0
 10
0.000000
 20
0.000000
 40
0.127000
 0
ENDBLK
  8
0
  0
BLOCK
  8
0
  2
D12
 70
64
 10
0.0
 20
0.0
  3
D12
  0
CIRCLE
  8
0
 10
0.000000
 20
0.000000
 40
0.076200
 0
ENDBLK
  8
0
  0
ENDSEC
  0
SECTION
  2
ENTITIES
  0
POLYLINE
  8
gg1
 62
1
 40
0.000000
 41
0.000000
 66
  1
  0
VERTEX
  8
gg1
 10
190.500381
 20
381.000762
  0
VERTEX
  8
gg1
 10
190.500381
 20
391.160782
  0
VERTEX
  8
gg1
 10
205.740411
 20
391.160782
  0
SEQEND
  8
gg1
  0
POLYLINE
  8
gg1
 62
1
 40
0.000000
 41
0.000000
 66
  1
  0
VERTEX
  8
gg1
 10
205.740411
 20
381.000762
  0
VERTEX
  8
gg1
 10
205.740411
 20
391.160782
  0
SEQEND
  8
gg1
  0
POLYLINE
  8
gg1
 62
1
 40
0.000000
 41
0.000000
 66
  1
  0
VERTEX
  8
gg1
 10
190.500381
 20
381.000762
  0
VERTEX
  8
gg1
 10
205.740411
 20
381.000762
  0
SEQEND
  8
gg1
  0
POLYLINE
  8
gg1
 62
1
 40
0.000000
 41
0.000000
 66
  1
  0
VERTEX
  8
gg1
 10
191.262383
 20
389.890780
  0
VERTEX
  8
gg1
 10
192.278385
 20
389.890780
  0
SEQEND
  8
gg1
  0
POLYLINE
  8
gg1
 62
1
 40
0.000000
 41
0.000000
 66
  1
  0
VERTEX
  8
gg1
 10
191.770384
 20
389.382779
  0
VERTEX
  8
gg1
 10
191.770384
 20
390.398781
  0
SEQEND
  8
gg1
  0
POLYLINE
  8
gg1
 62
1
 40
0.000000
 41
0.000000
 66
  1
  0
VERTEX
  8
gg1
 10
191.262383
 20
387.350775
  0
VERTEX
  8
gg1
 10
192.278385
 20
387.350775
  0
SEQEND
  8
gg1
  0
POLYLINE
  8
gg1
 62
1
 40
0.000000
 41
0.000000
 66
  1
  0
VERTEX
  8
gg1
 10
191.770384
 20
386.842774
  0
VERTEX
  8
gg1
 10
191.770384
 20
387.858776
  0
SEQEND
  8
gg1
  0
POLYLINE
  8
gg1
 62
1
 40
0.000000
 41
0.000000
 66
  1
  0
VERTEX
  8
gg1
 10
191.262383
 20
384.810770
  0
VERTEX
  8
gg1
 10
192.278385
 20
384.810770
  0
SEQEND
  8
gg1
  0
POLYLINE
  8
gg1
 62
1
 40
0.000000
 41
0.000000
 66
  1
  0
VERTEX
  8
gg1
 10
191.770384
 20
384.302769
  0
VERTEX
  8
gg1
 10
191.770384
 20
385.318771
  0
SEQEND
  8
gg1
  0
POLYLINE
  8
gg1
 62
1
 40
0.000000
 41
0.000000
 66
  1
  0
VERTEX
  8
gg1
 10
191.262383
 20
382.270765
  0
VERTEX
  8
gg1
 10
192.278385
 20
382.270765
  0
SEQEND
  8
gg1
  0
POLYLINE
  8
gg1
 62
1
 40
0.000000
 41
0.000000
 66
  1
  0
VERTEX
  8
gg1
 10
191.770384
 20
381.762764
  0
VERTEX
  8
gg1
 10
191.770384
 20
382.778766
  0
SEQEND
  8
gg1
  0
POLYLINE
  8
gg1
 62
1
 40
0.000000
 41
0.000000
 66
  1
  0
VERTEX
  8
gg1
 10
203.962408
 20
389.890780
  0
VERTEX
  8
gg1
 10
204.978410
 20
389.890780
  0
SEQEND
  8
gg1
  0
POLYLINE
  8
gg1
 62
1
 40
0.000000
 41
0.000000
 66
  1
  0
VERTEX
  8
gg1
 10
204.470409
 20
389.382779
  0
VERTEX
  8
gg1
 10
204.470409
 20
390.398781
  0
SEQEND
  8
gg1
  0
POLYLINE
  8
gg1
 62
1
 40
0.000000
 41
0.000000
 66
  1
  0
VERTEX
  8
gg1
 10
203.962408
 20
387.350775
  0
VERTEX
  8
gg1
 10
204.978410
 20
387.350775
  0
SEQEND
  8
gg1
  0
POLYLINE
  8
gg1
 62
1
 40
0.000000
 41
0.000000
 66
  1
  0
VERTEX
  8
gg1
 10
204.470409
 20
386.842774
  0
VERTEX
  8
gg1
 10
204.470409
 20
387.858776
  0
SEQEND
  8
gg1
  0
POLYLINE
  8
gg1
 62
1
 40
0.000000
 41
0.000000
 66
  1
  0
VERTEX
  8
gg1
 10
203.962408
 20
384.810770
  0
VERTEX
  8
gg1
 10
204.978410
 20
384.810770
  0
SEQEND
  8
gg1
  0
POLYLINE
  8
gg1
 62
1
 40
0.000000
 41
0.000000
 66
  1
  0
VERTEX
  8
gg1
 10
204.470409
 20
384.302769
  0
VERTEX
  8
gg1
 10
204.470409
 20
385.318771
  0
SEQEND
  8
gg1
  0
POLYLINE
  8
gg1
 62
1
 40
0.000000
 41
0.000000
 66
  1
  0
VERTEX
  8
gg1
 10
203.962408
 20
382.270765
  0
VERTEX
  8
gg1
 10
204.978410
 20
382.270765
  0
SEQEND
  8
gg1
  0
POLYLINE
  8
gg1
 62
1
 40
0.000000
 41
0.000000
 66
  1
  0
VERTEX
  8
gg1
 10
204.470409
 20
381.762764
  0
VERTEX
  8
gg1
 10
204.470409
 20
382.778766
  0
SEQEND
  8
gg1
  0
POLYLINE
  8
gg1
 62
1
 40
0.000000
 41
0.000000
 66
  1
  0
VERTEX
  8
gg1
 10
187.960376
 20
382.524765
  0
VERTEX
  8
gg1
 10
188.468377
 20
381.000762
  0
VERTEX
  8
gg1
 10
188.976378
 20
382.524765
  0
SEQEND
  8
gg1
  0
POLYLINE
  8
gg1
 62
1
 40
0.000000
 41
0.000000
 66
  1
  0
VERTEX
  8
gg1
 10
188.468377
 20
391.160782
  0
VERTEX
  8
gg1
 10
188.976378
 20
389.636779
  0
SEQEND
  8
gg1
  0
POLYLINE
  8
gg1
 62
1
 40
0.000000
 41
0.000000
 66
  1
  0
VERTEX
  8
gg1
 10
187.960376
 20
389.636779
  0
VERTEX
  8
gg1
 10
188.468377
 20
391.160782
  0
SEQEND
  8
gg1
  0
POLYLINE
  8
gg1
 62
1
 40
0.000000
 41
0.000000
 66
  1
  0
VERTEX
  8
gg1
 10
188.468377
 20
381.000762
  0
VERTEX
  8
gg1
 10
188.468377
 20
386.080772
  0
VERTEX
  8
gg1
 10
188.468377
 20
391.160782
  0
SEQEND
  8
gg1
  0
POLYLINE
  8
gg1
 62
1
 40
0.000000
 41
0.000000
 66
  1
  0
VERTEX
  8
gg1
 10
188.214376
 20
381.000762
  0
VERTEX
  8
gg1
 10
189.801880
 20
381.000762
  0
SEQEND
  8
gg1
  0
POLYLINE
  8
gg1
 62
1
 40
0.000000
 41
0.000000
 66
  1
  0
VERTEX
  8
gg1
 10
188.214376
 20
391.160782
  0
VERTEX
  8
gg1
 10
189.801880
 20
391.160782
  0
SEQEND
  8
gg1
  0
POLYLINE
  8
gg1
 62
1
 40
0.000000
 41
0.000000
 66
  1
  0
VERTEX
  8
gg1
 10
190.500381
 20
378.968758
  0
VERTEX
  8
gg1
 10
192.024384
 20
379.476759
  0
SEQEND
  8
gg1
  0
POLYLINE
  8
gg1
 62
1
 40
0.000000
 41
0.000000
 66
  1
  0
VERTEX
  8
gg1
 10
190.500381
 20
378.968758
  0
VERTEX
  8
gg1
 10
192.024384
 20
378.460757
  0
SEQEND
  8
gg1
  0
POLYLINE
  8
gg1
 62
1
 40
0.000000
 41
0.000000
 66
  1
  0
VERTEX
  8
gg1
 10
204.216408
 20
378.460757
  0
VERTEX
  8
gg1
 10
205.740411
 20
378.968758
  0
SEQEND
  8
gg1
  0
POLYLINE
  8
gg1
 62
1
 40
0.000000
 41
0.000000
 66
  1
  0
VERTEX
  8
gg1
 10
204.216408
 20
379.476759
  0
VERTEX
  8
gg1
 10
205.740411
 20
378.968758
  0
SEQEND
  8
gg1
  0
POLYLINE
  8
gg1
 62
1
 40
0.000000
 41
0.000000
 66
  1
  0
VERTEX
  8
gg1
 10
190.500381
 20
378.968758
  0
VERTEX
  8
gg1
 10
193.371887
 20
378.968758
  0
SEQEND
  8
gg1
  0
POLYLINE
  8
gg1
 62
1
 40
0.000000
 41
0.000000
 66
  1
  0
VERTEX
  8
gg1
 10
202.056104
 20
378.968758
  0
VERTEX
  8
gg1
 10
205.740411
 20
378.968758
  0
SEQEND
  8
gg1
  0
POLYLINE
  8
gg1
 62
1
 40
0.000000
 41
0.000000
 66
  1
  0
VERTEX
  8
gg1
 10
190.500381
 20
378.714757
  0
VERTEX
  8
gg1
 10
190.500381
 20
380.302261
  0
SEQEND
  8
gg1
  0
POLYLINE
  8
gg1
 62
1
 40
0.000000
 41
0.000000
 66
  1
  0
VERTEX
  8
gg1
 10
205.740411
 20
378.714757
  0
VERTEX
  8
gg1
 10
205.740411
 20
380.302261
  0
SEQEND
  8
gg1
  0
POLYLINE
  8
gg1
 62
1
 40
0.000000
 41
0.000000
 66
  1
  0
VERTEX
  8
gg1
 10
187.172974
 20
382.549965
  0
VERTEX
  8
gg1
 10
185.649471
 20
382.549965
  0
VERTEX
  8
gg1
 10
186.411173
 20
381.788164
  0
VERTEX
  8
gg1
 10
186.411173
 20
382.803866
  0
SEQEND
  8
gg1
  0
POLYLINE
  8
gg1
 62
1
 40
0.000000
 41
0.000000
 66
  1
  0
VERTEX
  8
gg1
 10
185.903372
 20
383.311667
  0
VERTEX
  8
gg1
 10
185.649471
 20
383.565567
  0
VERTEX
  8
gg1
 10
185.649471
 20
384.073468
  0
VERTEX
  8
gg1
 10
185.903372
 20
384.327369
  0
VERTEX
  8
gg1
 10
186.919074
 20
384.327369
  0
VERTEX
  8
gg1
 10
187.172974
 20
384.073468
  0
VERTEX
  8
gg1
 10
187.172974
 20
383.565567
  0
VERTEX
  8
gg1
 10
186.919074
 20
383.311667
  0
VERTEX
  8
gg1
 10
185.903372
 20
383.311667
  0
SEQEND
  8
gg1
  0
POLYLINE
  8
gg1
 62
1
 40
0.000000
 41
0.000000
 66
  1
  0
VERTEX
  8
gg1
 10
185.903372
 20
384.835170
  0
VERTEX
  8
gg1
 10
185.649471
 20
385.089070
  0
VERTEX
  8
gg1
 10
185.649471
 20
385.596971
  0
VERTEX
  8
gg1
 10
185.903372
 20
385.850872
  0
VERTEX
  8
gg1
 10
186.919074
 20
385.850872
  0
VERTEX
  8
gg1
 10
187.172974
 20
385.596971
  0
VERTEX
  8
gg1
 10
187.172974
 20
385.089070
  0
VERTEX
  8
gg1
 10
186.919074
 20
384.835170
  0
VERTEX
  8
gg1
 10
185.903372
 20
384.835170
  0
SEQEND
  8
gg1
  0
POLYLINE
  8
gg1
 62
1
 40
0.000000
 41
0.000000
 66
  1
  0
VERTEX
  8
gg1
 10
187.172974
 20
386.358673
  0
VERTEX
  8
gg1
 10
186.157272
 20
386.358673
  0
VERTEX
  8
gg1
 10
186.157272
 20
386.612573
  0
VERTEX
  8
gg1
 10
186.411173
 20
386.866574
  0
VERTEX
  8
gg1
 10
187.172974
 20
386.866574
  0
VERTEX
  8
gg1
 10
186.411173
 20
386.866574
  0
VERTEX
  8
gg1
 10
186.157272
 20
387.120474
  0
VERTEX
  8
gg1
 10
186.411173
 20
387.374375
  0
VERTEX
  8
gg1
 10
187.172974
 20
387.374375
  0
SEQEND
  8
gg1
  0
POLYLINE
  8
gg1
 62
1
 40
0.000000
 41
0.000000
 66
  1
  0
VERTEX
  8
gg1
 10
187.172974
 20
387.882176
  0
VERTEX
  8
gg1
 10
187.172974
 20
388.390077
  0
VERTEX
  8
gg1
 10
187.172974
 20
388.136076
  0
VERTEX
  8
gg1
 10
186.157272
 20
388.136076
  0
VERTEX
  8
gg1
 10
186.157272
 20
387.882176
  0
SEQEND
  8
gg1
  0
POLYLINE
  8
gg1
 62
1
 40
0.000000
 41
0.000000
 66
  1
  0
VERTEX
  8
gg1
 10
187.172974
 20
389.151778
  0
VERTEX
  8
gg1
 10
187.172974
 20
389.659579
  0
VERTEX
  8
gg1
 10
187.172974
 20
389.405679
  0
VERTEX
  8
gg1
 10
185.649471
 20
389.405679
  0
VERTEX
  8
gg1
 10
185.649471
 20
389.151778
  0
SEQEND
  8
gg1
  0
POLYLINE
  8
gg1
 62
1
 40
0.000000
 41
0.000000
 66
  1
  0
VERTEX
  8
gg1
 10
194.793890
 20
379.578159
  0
VERTEX
  8
gg1
 10
194.286089
 20
379.324159
  0
VERTEX
  8
gg1
 10
193.778288
 20
378.816358
  0
VERTEX
  8
gg1
 10
193.778288
 20
378.308557
  0
VERTEX
  8
gg1
 10
194.032188
 20
378.054656
  0
VERTEX
  8
gg1
 10
194.539989
 20
378.054656
  0
VERTEX
  8
gg1
 10
194.793890
 20
378.308557
  0
VERTEX
  8
gg1
 10
194.793890
 20
378.562457
  0
VERTEX
  8
gg1
 10
194.539989
 20
378.816358
  0
VERTEX
  8
gg1
 10
193.778288
 20
378.816358
  0
SEQEND
  8
gg1
  0
POLYLINE
  8
gg1
 62
1
 40
0.000000
 41
0.000000
 66
  1
  0
VERTEX
  8
gg1
 10
195.301791
 20
379.324159
  0
VERTEX
  8
gg1
 10
195.555691
 20
379.578159
  0
VERTEX
  8
gg1
 10
196.063492
 20
379.578159
  0
VERTEX
  8
gg1
 10
196.317393
 20
379.324159
  0
VERTEX
  8
gg1
 10
196.317393
 20
378.308557
  0
VERTEX
  8
gg1
 10
196.063492
 20
378.054656
  0
VERTEX
  8
gg1
 10
195.555691
 20
378.054656
  0
VERTEX
  8
gg1
 10
195.301791
 20
378.308557
  0
VERTEX
  8
gg1
 10
195.301791
 20
379.324159
  0
SEQEND
  8
gg1
  0
POLYLINE
  8
gg1
 62
1
 40
0.000000
 41
0.000000
 66
  1
  0
VERTEX
  8
gg1
 10
196.825294
 20
379.324159
  0
VERTEX
  8
gg1
 10
197.079194
 20
379.578159
  0
VERTEX
  8
gg1
 10
197.586995
 20
379.578159
  0
VERTEX
  8
gg1
 10
197.840996
 20
379.324159
  0
VERTEX
  8
gg1
 10
197.840996
 20
378.308557
  0
VERTEX
  8
gg1
 10
197.586995
 20
378.054656
  0
VERTEX
  8
gg1
 10
197.079194
 20
378.054656
  0
VERTEX
  8
gg1
 10
196.825294
 20
378.308557
  0
VERTEX
  8
gg1
 10
196.825294
 20
379.324159
  0
SEQEND
  8
gg1
  0
POLYLINE
  8
gg1
 62
1
 40
0.000000
 41
0.000000
 66
  1
  0
VERTEX
  8
gg1
 10
198.348797
 20
378.054656
  0
VERTEX
  8
gg1
 10
198.348797
 20
379.070258
  0
VERTEX
  8
gg1
 10
198.602697
 20
379.070258
  0
VERTEX
  8
gg1
 10
198.856598
 20
378.816358
  0
VERTEX
  8
gg1
 10
198.856598
 20
378.054656
  0
VERTEX
  8
gg1
 10
198.856598
 20
378.816358
  0
VERTEX
  8
gg1
 10
199.110598
 20
379.070258
  0
VERTEX
  8
gg1
 10
199.364499
 20
378.816358
  0
VERTEX
  8
gg1
 10
199.364499
 20
378.054656
  0
SEQEND
  8
gg1
  0
POLYLINE
  8
gg1
 62
1
 40
0.000000
 41
0.000000
 66
  1
  0
VERTEX
  8
gg1
 10
199.872300
 20
378.054656
  0
VERTEX
  8
gg1
 10
200.380101
 20
378.054656
  0
VERTEX
  8
gg1
 10
200.126200
 20
378.054656
  0
VERTEX
  8
gg1
 10
200.126200
 20
379.070258
  0
VERTEX
  8
gg1
 10
199.872300
 20
379.070258
  0
SEQEND
  8
gg1
  0
POLYLINE
  8
gg1
 62
1
 40
0.000000
 41
0.000000
 66
  1
  0
VERTEX
  8
gg1
 10
201.141902
 20
378.054656
  0
VERTEX
  8
gg1
 10
201.649703
 20
378.054656
  0
VERTEX
  8
gg1
 10
201.395803
 20
378.054656
  0
VERTEX
  8
gg1
 10
201.395803
 20
379.578159
  0
VERTEX
  8
gg1
 10
201.141902
 20
379.578159
  0
SEQEND
  8
gg1
  0
ENDSEC
  0
EOF
