  0
SECTION
  2
HEADER
  9
$EXTMIN
 10
-0.210000
 20
-0.114000
  9
$EXTMAX
 10
0.705000
 20
0.440000
  9
$LIMMIN
 10
-0.210000
 20
-0.114000
  9
$LIMMAX
 10
0.705000
 20
0.440000
  9
$FILLMODE
 70
  1
  0
ENDSEC
  0
SECTION
  2
TABLES
  0
TABLE
  2
LTYPE
 70
  1
  0
LTYPE
  2
CONTINUOUS
 70
 64
  3
Solid line
 72
 65
 73
  0
 40
0.0
  0
ENDTAB
  0
TABLE
  2
LAYER
 70
 1
  0
LAYER
  2
0
 70
  0
 62
7
  6
CONTINUOUS
  0
LAYER
  2
gg1
 70
  0
 62
1
  6
CONTINUOUS
  0
ENDTAB
  0
TABLE
  2
STYLE
 70
  1
  0
STYLE
  2
STANDARD
 70
  0
 40
0.0
 41
1.0
 50
0.0
 71
  0
 42
0.2
  3
txt
  4

  0
ENDTAB
  0
ENDSEC
  0
SECTION
  2
BLOCKS
  0
BLOCK
  8
0
  2
D10
 70
64
 10
0.0
 20
0.0
  3
D10
  0
CIRCLE
  8
0
 10
0.000000
 20
0.000000
 40
0.005000
 0
ENDBLK
  8
0
  0
BLOCK
  8
0
  2
D11
 70
64
 10
0.0
 20
0.0
  3
D11
  0
CIRCLE
  8
0
 10
0.000000
 20
0.000000
 40
0.002500
 0
ENDBLK
  8
0
  0
BLOCK
  8
0
  2
D12
 70
64
 10
0.0
 20
0.0
  3
D12
  0
CIRCLE
  8
0
 10
0.000000
 20
0.000000
 40
0.003000
 0
ENDBLK
  8
0
  0
ENDSEC
  0
SECTION
  2
ENTITIES
  0
POLYLINE
  8
gg1
 62
1
 40
0.000000
 41
0.000000
 66
  1
  0
VERTEX
  8
gg1
 10
-0.085000
 20
0.435000
  0
VERTEX
  8
gg1
 10
-0.012500
 20
0.435000
  0
SEQEND
  8
gg1
  0
POLYLINE
  8
gg1
 62
1
 40
0.000000
 41
0.000000
 66
  1
  0
VERTEX
  8
gg1
 10
-0.085000
 20
0.000000
  0
VERTEX
  8
gg1
 10
-0.012500
 20
0.000000
  0
SEQEND
  8
gg1
  0
POLYLINE
  8
gg1
 62
1
 40
0.000000
 41
0.000000
 66
  1
  0
VERTEX
  8
gg1
 10
-0.075000
 20
0.217500
  0
VERTEX
  8
gg1
 10
-0.075000
 20
0.435000
  0
SEQEND
  8
gg1
  0
POLYLINE
  8
gg1
 62
1
 40
0.000000
 41
0.000000
 66
  1
  0
VERTEX
  8
gg1
 10
-0.075000
 20
0.000000
  0
VERTEX
  8
gg1
 10
-0.075000
 20
0.217500
  0
SEQEND
  8
gg1
  0
POLYLINE
  8
gg1
 62
1
 40
0.000000
 41
0.000000
 66
  1
  0
VERTEX
  8
gg1
 10
-0.095000
 20
0.375000
  0
VERTEX
  8
gg1
 10
-0.075000
 20
0.435000
  0
VERTEX
  8
gg1
 10
-0.055000
 20
0.375000
  0
SEQEND
  8
gg1
  0
POLYLINE
  8
gg1
 62
1
 40
0.000000
 41
0.000000
 66
  1
  0
VERTEX
  8
gg1
 10
-0.075000
 20
0.000000
  0
VERTEX
  8
gg1
 10
-0.055000
 20
0.060000
  0
SEQEND
  8
gg1
  0
POLYLINE
  8
gg1
 62
1
 40
0.000000
 41
0.000000
 66
  1
  0
VERTEX
  8
gg1
 10
-0.095000
 20
0.060000
  0
VERTEX
  8
gg1
 10
-0.075000
 20
0.000000
  0
SEQEND
  8
gg1
  0
POLYLINE
  8
gg1
 62
1
 40
0.000000
 41
0.000000
 66
  1
  0
VERTEX
  8
gg1
 10
0.000000
 20
-0.075000
  0
VERTEX
  8
gg1
 10
0.060000
 20
-0.055000
  0
SEQEND
  8
gg1
  0
POLYLINE
  8
gg1
 62
1
 40
0.000000
 41
0.000000
 66
  1
  0
VERTEX
  8
gg1
 10
0.000000
 20
-0.075000
  0
VERTEX
  8
gg1
 10
0.060000
 20
-0.095000
  0
SEQEND
  8
gg1
  0
POLYLINE
  8
gg1
 62
1
 40
0.000000
 41
0.000000
 66
  1
  0
VERTEX
  8
gg1
 10
0.640000
 20
-0.095000
  0
VERTEX
  8
gg1
 10
0.700000
 20
-0.075000
  0
SEQEND
  8
gg1
  0
POLYLINE
  8
gg1
 62
1
 40
0.000000
 41
0.000000
 66
  1
  0
VERTEX
  8
gg1
 10
0.640000
 20
-0.055000
  0
VERTEX
  8
gg1
 10
0.700000
 20
-0.075000
  0
SEQEND
  8
gg1
  0
POLYLINE
  8
gg1
 62
1
 40
0.000000
 41
0.000000
 66
  1
  0
VERTEX
  8
gg1
 10
0.000000
 20
-0.075000
  0
VERTEX
  8
gg1
 10
0.163000
 20
-0.075000
  0
SEQEND
  8
gg1
  0
POLYLINE
  8
gg1
 62
1
 40
0.000000
 41
0.000000
 66
  1
  0
VERTEX
  8
gg1
 10
0.504900
 20
-0.075000
  0
VERTEX
  8
gg1
 10
0.700000
 20
-0.075000
  0
SEQEND
  8
gg1
  0
POLYLINE
  8
gg1
 62
1
 40
0.000000
 41
0.000000
 66
  1
  0
VERTEX
  8
gg1
 10
0.000000
 20
-0.085000
  0
VERTEX
  8
gg1
 10
0.000000
 20
-0.012500
  0
SEQEND
  8
gg1
  0
POLYLINE
  8
gg1
 62
1
 40
0.000000
 41
0.000000
 66
  1
  0
VERTEX
  8
gg1
 10
0.700000
 20
-0.085000
  0
VERTEX
  8
gg1
 10
0.700000
 20
-0.012500
  0
SEQEND
  8
gg1
  0
POLYLINE
  8
gg1
 62
1
 40
0.000000
 41
0.000000
 66
  1
  0
VERTEX
  8
gg1
 10
0.000000
 20
0.000000
  0
VERTEX
  8
gg1
 10
0.000000
 20
0.435000
  0
VERTEX
  8
gg1
 10
0.700000
 20
0.435000
  0
SEQEND
  8
gg1
  0
POLYLINE
  8
gg1
 62
1
 40
0.000000
 41
0.000000
 66
  1
  0
VERTEX
  8
gg1
 10
0.700000
 20
0.000000
  0
VERTEX
  8
gg1
 10
0.700000
 20
0.435000
  0
SEQEND
  8
gg1
  0
POLYLINE
  8
gg1
 62
1
 40
0.000000
 41
0.000000
 66
  1
  0
VERTEX
  8
gg1
 10
0.000000
 20
0.000000
  0
VERTEX
  8
gg1
 10
0.700000
 20
0.000000
  0
SEQEND
  8
gg1
  0
POLYLINE
  8
gg1
 62
1
 40
0.000000
 41
0.000000
 66
  1
  0
VERTEX
  8
gg1
 10
0.460000
 20
0.040000
  0
VERTEX
  8
gg1
 10
0.480000
 20
0.040000
  0
SEQEND
  8
gg1
  0
POLYLINE
  8
gg1
 62
1
 40
0.000000
 41
0.000000
 66
  1
  0
VERTEX
  8
gg1
 10
0.470000
 20
0.030000
  0
VERTEX
  8
gg1
 10
0.470000
 20
0.050000
  0
SEQEND
  8
gg1
  0
POLYLINE
  8
gg1
 62
1
 40
0.000000
 41
0.000000
 66
  1
  0
VERTEX
  8
gg1
 10
0.572000
 20
0.119100
  0
VERTEX
  8
gg1
 10
0.658000
 20
0.119100
  0
SEQEND
  8
gg1
  0
POLYLINE
  8
gg1
 62
1
 40
0.000000
 41
0.000000
 66
  1
  0
VERTEX
  8
gg1
 10
0.615000
 20
0.076100
  0
VERTEX
  8
gg1
 10
0.615000
 20
0.162100
  0
SEQEND
  8
gg1
  0
POLYLINE
  8
gg1
 62
1
 40
0.000000
 41
0.000000
 66
  1
  0
VERTEX
  8
gg1
 10
0.572000
 20
0.315900
  0
VERTEX
  8
gg1
 10
0.658000
 20
0.315900
  0
SEQEND
  8
gg1
  0
POLYLINE
  8
gg1
 62
1
 40
0.000000
 41
0.000000
 66
  1
  0
VERTEX
  8
gg1
 10
0.615000
 20
0.272900
  0
VERTEX
  8
gg1
 10
0.615000
 20
0.358900
  0
SEQEND
  8
gg1
  0
POLYLINE
  8
gg1
 62
1
 40
0.000000
 41
0.000000
 66
  1
  0
VERTEX
  8
gg1
 10
0.130000
 20
0.367500
  0
VERTEX
  8
gg1
 10
0.170000
 20
0.367500
  0
SEQEND
  8
gg1
  0
POLYLINE
  8
gg1
 62
1
 40
0.000000
 41
0.000000
 66
  1
  0
VERTEX
  8
gg1
 10
0.150000
 20
0.347500
  0
VERTEX
  8
gg1
 10
0.150000
 20
0.387500
  0
SEQEND
  8
gg1
  0
POLYLINE
  8
gg1
 62
1
 40
0.000000
 41
0.000000
 66
  1
  0
VERTEX
  8
gg1
 10
0.130000
 20
0.267500
  0
VERTEX
  8
gg1
 10
0.170000
 20
0.267500
  0
SEQEND
  8
gg1
  0
POLYLINE
  8
gg1
 62
1
 40
0.000000
 41
0.000000
 66
  1
  0
VERTEX
  8
gg1
 10
0.150000
 20
0.247500
  0
VERTEX
  8
gg1
 10
0.150000
 20
0.287500
  0
SEQEND
  8
gg1
  0
POLYLINE
  8
gg1
 62
1
 40
0.000000
 41
0.000000
 66
  1
  0
VERTEX
  8
gg1
 10
0.130000
 20
0.167500
  0
VERTEX
  8
gg1
 10
0.170000
 20
0.167500
  0
SEQEND
  8
gg1
  0
POLYLINE
  8
gg1
 62
1
 40
0.000000
 41
0.000000
 66
  1
  0
VERTEX
  8
gg1
 10
0.150000
 20
0.147500
  0
VERTEX
  8
gg1
 10
0.150000
 20
0.187500
  0
SEQEND
  8
gg1
  0
POLYLINE
  8
gg1
 62
1
 40
0.000000
 41
0.000000
 66
  1
  0
VERTEX
  8
gg1
 10
0.130000
 20
0.067500
  0
VERTEX
  8
gg1
 10
0.170000
 20
0.067500
  0
SEQEND
  8
gg1
  0
POLYLINE
  8
gg1
 62
1
 40
0.000000
 41
0.000000
 66
  1
  0
VERTEX
  8
gg1
 10
0.150000
 20
0.047500
  0
VERTEX
  8
gg1
 10
0.150000
 20
0.087500
  0
SEQEND
  8
gg1
  0
POLYLINE
  8
gg1
 62
1
 40
0.000000
 41
0.000000
 66
  1
  0
VERTEX
  8
gg1
 10
0.042000
 20
0.315900
  0
VERTEX
  8
gg1
 10
0.128000
 20
0.315900
  0
SEQEND
  8
gg1
  0
POLYLINE
  8
gg1
 62
1
 40
0.000000
 41
0.000000
 66
  1
  0
VERTEX
  8
gg1
 10
0.085000
 20
0.272900
  0
VERTEX
  8
gg1
 10
0.085000
 20
0.358900
  0
SEQEND
  8
gg1
  0
POLYLINE
  8
gg1
 62
1
 40
0.000000
 41
0.000000
 66
  1
  0
VERTEX
  8
gg1
 10
0.042000
 20
0.119100
  0
VERTEX
  8
gg1
 10
0.128000
 20
0.119100
  0
SEQEND
  8
gg1
  0
POLYLINE
  8
gg1
 62
1
 40
0.000000
 41
0.000000
 66
  1
  0
VERTEX
  8
gg1
 10
0.085000
 20
0.076100
  0
VERTEX
  8
gg1
 10
0.085000
 20
0.162100
  0
SEQEND
  8
gg1
  0
POLYLINE
  8
gg1
 62
1
 40
0.000000
 41
0.000000
 66
  1
  0
VERTEX
  8
gg1
 10
0.530000
 20
0.067500
  0
VERTEX
  8
gg1
 10
0.570000
 20
0.067500
  0
SEQEND
  8
gg1
  0
POLYLINE
  8
gg1
 62
1
 40
0.000000
 41
0.000000
 66
  1
  0
VERTEX
  8
gg1
 10
0.550000
 20
0.047500
  0
VERTEX
  8
gg1
 10
0.550000
 20
0.087500
  0
SEQEND
  8
gg1
  0
POLYLINE
  8
gg1
 62
1
 40
0.000000
 41
0.000000
 66
  1
  0
VERTEX
  8
gg1
 10
0.530000
 20
0.167500
  0
VERTEX
  8
gg1
 10
0.570000
 20
0.167500
  0
SEQEND
  8
gg1
  0
POLYLINE
  8
gg1
 62
1
 40
0.000000
 41
0.000000
 66
  1
  0
VERTEX
  8
gg1
 10
0.550000
 20
0.147500
  0
VERTEX
  8
gg1
 10
0.550000
 20
0.187500
  0
SEQEND
  8
gg1
  0
POLYLINE
  8
gg1
 62
1
 40
0.000000
 41
0.000000
 66
  1
  0
VERTEX
  8
gg1
 10
0.530000
 20
0.267500
  0
VERTEX
  8
gg1
 10
0.570000
 20
0.267500
  0
SEQEND
  8
gg1
  0
POLYLINE
  8
gg1
 62
1
 40
0.000000
 41
0.000000
 66
  1
  0
VERTEX
  8
gg1
 10
0.550000
 20
0.247500
  0
VERTEX
  8
gg1
 10
0.550000
 20
0.287500
  0
SEQEND
  8
gg1
  0
POLYLINE
  8
gg1
 62
1
 40
0.000000
 41
0.000000
 66
  1
  0
VERTEX
  8
gg1
 10
0.530000
 20
0.367500
  0
VERTEX
  8
gg1
 10
0.570000
 20
0.367500
  0
SEQEND
  8
gg1
  0
POLYLINE
  8
gg1
 62
1
 40
0.000000
 41
0.000000
 66
  1
  0
VERTEX
  8
gg1
 10
0.550000
 20
0.347500
  0
VERTEX
  8
gg1
 10
0.550000
 20
0.387500
  0
SEQEND
  8
gg1
  0
POLYLINE
  8
gg1
 62
1
 40
0.000000
 41
0.000000
 66
  1
  0
VERTEX
  8
gg1
 10
-0.147000
 20
0.076500
  0
VERTEX
  8
gg1
 10
-0.207000
 20
0.076500
  0
VERTEX
  8
gg1
 10
-0.177000
 20
0.046500
  0
VERTEX
  8
gg1
 10
-0.177000
 20
0.086500
  0
SEQEND
  8
gg1
  0
POLYLINE
  8
gg1
 62
1
 40
0.000000
 41
0.000000
 66
  1
  0
VERTEX
  8
gg1
 10
-0.197000
 20
0.106500
  0
VERTEX
  8
gg1
 10
-0.207000
 20
0.116500
  0
VERTEX
  8
gg1
 10
-0.207000
 20
0.136500
  0
VERTEX
  8
gg1
 10
-0.197000
 20
0.146500
  0
VERTEX
  8
gg1
 10
-0.187000
 20
0.146500
  0
VERTEX
  8
gg1
 10
-0.177000
 20
0.136500
  0
VERTEX
  8
gg1
 10
-0.177000
 20
0.126500
  0
VERTEX
  8
gg1
 10
-0.177000
 20
0.136500
  0
VERTEX
  8
gg1
 10
-0.167000
 20
0.146500
  0
VERTEX
  8
gg1
 10
-0.157000
 20
0.146500
  0
VERTEX
  8
gg1
 10
-0.147000
 20
0.136500
  0
VERTEX
  8
gg1
 10
-0.147000
 20
0.116500
  0
VERTEX
  8
gg1
 10
-0.157000
 20
0.106500
  0
SEQEND
  8
gg1
  0
POLYLINE
  8
gg1
 62
1
 40
0.000000
 41
0.000000
 66
  1
  0
VERTEX
  8
gg1
 10
-0.207000
 20
0.206500
  0
VERTEX
  8
gg1
 10
-0.207000
 20
0.166500
  0
VERTEX
  8
gg1
 10
-0.177000
 20
0.166500
  0
VERTEX
  8
gg1
 10
-0.187000
 20
0.186500
  0
VERTEX
  8
gg1
 10
-0.187000
 20
0.196500
  0
VERTEX
  8
gg1
 10
-0.177000
 20
0.206500
  0
VERTEX
  8
gg1
 10
-0.157000
 20
0.206500
  0
VERTEX
  8
gg1
 10
-0.147000
 20
0.196500
  0
VERTEX
  8
gg1
 10
-0.147000
 20
0.176500
  0
VERTEX
  8
gg1
 10
-0.157000
 20
0.166500
  0
SEQEND
  8
gg1
  0
POLYLINE
  8
gg1
 62
1
 40
0.000000
 41
0.000000
 66
  1
  0
VERTEX
  8
gg1
 10
-0.147000
 20
0.226500
  0
VERTEX
  8
gg1
 10
-0.187000
 20
0.226500
  0
VERTEX
  8
gg1
 10
-0.187000
 20
0.236500
  0
VERTEX
  8
gg1
 10
-0.177000
 20
0.246500
  0
VERTEX
  8
gg1
 10
-0.147000
 20
0.246500
  0
VERTEX
  8
gg1
 10
-0.177000
 20
0.246500
  0
VERTEX
  8
gg1
 10
-0.187000
 20
0.256500
  0
VERTEX
  8
gg1
 10
-0.177000
 20
0.266500
  0
VERTEX
  8
gg1
 10
-0.147000
 20
0.266500
  0
SEQEND
  8
gg1
  0
POLYLINE
  8
gg1
 62
1
 40
0.000000
 41
0.000000
 66
  1
  0
VERTEX
  8
gg1
 10
-0.147000
 20
0.286500
  0
VERTEX
  8
gg1
 10
-0.147000
 20
0.306500
  0
VERTEX
  8
gg1
 10
-0.147000
 20
0.296500
  0
VERTEX
  8
gg1
 10
-0.187000
 20
0.296500
  0
VERTEX
  8
gg1
 10
-0.187000
 20
0.286500
  0
SEQEND
  8
gg1
  0
POLYLINE
  8
gg1
 62
1
 40
0.000000
 41
0.000000
 66
  1
  0
VERTEX
  8
gg1
 10
-0.147000
 20
0.336500
  0
VERTEX
  8
gg1
 10
-0.147000
 20
0.356400
  0
VERTEX
  8
gg1
 10
-0.147000
 20
0.346500
  0
VERTEX
  8
gg1
 10
-0.207000
 20
0.346500
  0
VERTEX
  8
gg1
 10
-0.207000
 20
0.336500
  0
SEQEND
  8
gg1
  0
POLYLINE
  8
gg1
 62
1
 40
0.000000
 41
0.000000
 66
  1
  0
VERTEX
  8
gg1
 10
0.179000
 20
-0.051000
  0
VERTEX
  8
gg1
 10
0.219000
 20
-0.051000
  0
VERTEX
  8
gg1
 10
0.219000
 20
-0.061000
  0
VERTEX
  8
gg1
 10
0.179000
 20
-0.101000
  0
VERTEX
  8
gg1
 10
0.179000
 20
-0.111000
  0
SEQEND
  8
gg1
  0
POLYLINE
  8
gg1
 62
1
 40
0.000000
 41
0.000000
 66
  1
  0
VERTEX
  8
gg1
 10
0.239000
 20
-0.061000
  0
VERTEX
  8
gg1
 10
0.249000
 20
-0.051000
  0
VERTEX
  8
gg1
 10
0.269000
 20
-0.051000
  0
VERTEX
  8
gg1
 10
0.279000
 20
-0.061000
  0
VERTEX
  8
gg1
 10
0.279000
 20
-0.101000
  0
VERTEX
  8
gg1
 10
0.269000
 20
-0.111000
  0
VERTEX
  8
gg1
 10
0.249000
 20
-0.111000
  0
VERTEX
  8
gg1
 10
0.239000
 20
-0.101000
  0
VERTEX
  8
gg1
 10
0.239000
 20
-0.061000
  0
SEQEND
  8
gg1
  0
POLYLINE
  8
gg1
 62
1
 40
0.000000
 41
0.000000
 66
  1
  0
VERTEX
  8
gg1
 10
0.299000
 20
-0.061000
  0
VERTEX
  8
gg1
 10
0.309000
 20
-0.051000
  0
VERTEX
  8
gg1
 10
0.329000
 20
-0.051000
  0
VERTEX
  8
gg1
 10
0.339000
 20
-0.061000
  0
VERTEX
  8
gg1
 10
0.339000
 20
-0.101000
  0
VERTEX
  8
gg1
 10
0.329000
 20
-0.111000
  0
VERTEX
  8
gg1
 10
0.309000
 20
-0.111000
  0
VERTEX
  8
gg1
 10
0.299000
 20
-0.101000
  0
VERTEX
  8
gg1
 10
0.299000
 20
-0.061000
  0
SEQEND
  8
gg1
  0
POLYLINE
  8
gg1
 62
1
 40
0.000000
 41
0.000000
 66
  1
  0
VERTEX
  8
gg1
 10
0.359000
 20
-0.111000
  0
VERTEX
  8
gg1
 10
0.359000
 20
-0.071000
  0
VERTEX
  8
gg1
 10
0.369000
 20
-0.071000
  0
VERTEX
  8
gg1
 10
0.379000
 20
-0.081000
  0
VERTEX
  8
gg1
 10
0.379000
 20
-0.111000
  0
VERTEX
  8
gg1
 10
0.379000
 20
-0.081000
  0
VERTEX
  8
gg1
 10
0.389000
 20
-0.071000
  0
VERTEX
  8
gg1
 10
0.399000
 20
-0.081000
  0
VERTEX
  8
gg1
 10
0.399000
 20
-0.111000
  0
SEQEND
  8
gg1
  0
POLYLINE
  8
gg1
 62
1
 40
0.000000
 41
0.000000
 66
  1
  0
VERTEX
  8
gg1
 10
0.419000
 20
-0.111000
  0
VERTEX
  8
gg1
 10
0.439000
 20
-0.111000
  0
VERTEX
  8
gg1
 10
0.429000
 20
-0.111000
  0
VERTEX
  8
gg1
 10
0.429000
 20
-0.071000
  0
VERTEX
  8
gg1
 10
0.419000
 20
-0.071000
  0
SEQEND
  8
gg1
  0
POLYLINE
  8
gg1
 62
1
 40
0.000000
 41
0.000000
 66
  1
  0
VERTEX
  8
gg1
 10
0.469000
 20
-0.111000
  0
VERTEX
  8
gg1
 10
0.489000
 20
-0.111000
  0
VERTEX
  8
gg1
 10
0.479000
 20
-0.111000
  0
VERTEX
  8
gg1
 10
0.479000
 20
-0.051000
  0
VERTEX
  8
gg1
 10
0.469000
 20
-0.051000
  0
SEQEND
  8
gg1
  0
ENDSEC
  0
EOF
