  0
SECTION
  2
HEADER
  9
$EXTMIN
 10
0.440000
 20
0.136000
  9
$EXTMAX
 10
1.255000
 20
0.555000
  9
$LIMMIN
 10
0.440000
 20
0.136000
  9
$LIMMAX
 10
1.255000
 20
0.555000
  9
$FILLMODE
 70
  1
  0
ENDSEC
  0
SECTION
  2
TABLES
  0
TABLE
  2
LTYPE
 70
  1
  0
LTYPE
  2
CONTINUOUS
 70
 64
  3
Solid line
 72
 65
 73
  0
 40
0.0
  0
ENDTAB
  0
TABLE
  2
LAYER
 70
 1
  0
LAYER
  2
0
 70
  0
 62
7
  6
CONTINUOUS
  0
LAYER
  2
gg1
 70
  0
 62
1
  6
CONTINUOUS
  0
ENDTAB
  0
TABLE
  2
STYLE
 70
  1
  0
STYLE
  2
STANDARD
 70
  0
 40
0.0
 41
1.0
 50
0.0
 71
  0
 42
0.2
  3
txt
  4

  0
ENDTAB
  0
ENDSEC
  0
SECTION
  2
BLOCKS
  0
BLOCK
  8
0
  2
D10
 70
64
 10
0.0
 20
0.0
  3
D10
  0
CIRCLE
  8
0
 10
0.000000
 20
0.000000
 40
0.005000
 0
ENDBLK
  8
0
  0
BLOCK
  8
0
  2
D11
 70
64
 10
0.0
 20
0.0
  3
D11
  0
CIRCLE
  8
0
 10
0.000000
 20
0.000000
 40
0.002500
 0
ENDBLK
  8
0
  0
BLOCK
  8
0
  2
D12
 70
64
 10
0.0
 20
0.0
  3
D12
  0
CIRCLE
  8
0
 10
0.000000
 20
0.000000
 40
0.003000
 0
ENDBLK
  8
0
  0
ENDSEC
  0
SECTION
  2
ENTITIES
  0
POLYLINE
  8
gg1
 62
1
 40
0.000000
 41
0.000000
 66
  1
  0
VERTEX
  8
gg1
 10
0.565000
 20
0.250000
  0
VERTEX
  8
gg1
 10
0.637500
 20
0.250000
  0
SEQEND
  8
gg1
  0
POLYLINE
  8
gg1
 62
1
 40
0.000000
 41
0.000000
 66
  1
  0
VERTEX
  8
gg1
 10
0.565000
 20
0.550000
  0
VERTEX
  8
gg1
 10
0.637500
 20
0.550000
  0
SEQEND
  8
gg1
  0
POLYLINE
  8
gg1
 62
1
 40
0.000000
 41
0.000000
 66
  1
  0
VERTEX
  8
gg1
 10
0.575000
 20
0.250000
  0
VERTEX
  8
gg1
 10
0.575000
 20
0.400000
  0
VERTEX
  8
gg1
 10
0.575000
 20
0.550000
  0
SEQEND
  8
gg1
  0
POLYLINE
  8
gg1
 62
1
 40
0.000000
 41
0.000000
 66
  1
  0
VERTEX
  8
gg1
 10
0.575000
 20
0.250000
  0
VERTEX
  8
gg1
 10
0.595000
 20
0.310000
  0
SEQEND
  8
gg1
  0
POLYLINE
  8
gg1
 62
1
 40
0.000000
 41
0.000000
 66
  1
  0
VERTEX
  8
gg1
 10
0.555000
 20
0.310000
  0
VERTEX
  8
gg1
 10
0.575000
 20
0.250000
  0
SEQEND
  8
gg1
  0
POLYLINE
  8
gg1
 62
1
 40
0.000000
 41
0.000000
 66
  1
  0
VERTEX
  8
gg1
 10
0.555000
 20
0.490000
  0
VERTEX
  8
gg1
 10
0.575000
 20
0.550000
  0
VERTEX
  8
gg1
 10
0.595000
 20
0.490000
  0
SEQEND
  8
gg1
  0
POLYLINE
  8
gg1
 62
1
 40
0.000000
 41
0.000000
 66
  1
  0
VERTEX
  8
gg1
 10
0.650000
 20
0.175000
  0
VERTEX
  8
gg1
 10
0.710000
 20
0.195000
  0
SEQEND
  8
gg1
  0
POLYLINE
  8
gg1
 62
1
 40
0.000000
 41
0.000000
 66
  1
  0
VERTEX
  8
gg1
 10
0.650000
 20
0.175000
  0
VERTEX
  8
gg1
 10
0.710000
 20
0.155000
  0
SEQEND
  8
gg1
  0
POLYLINE
  8
gg1
 62
1
 40
0.000000
 41
0.000000
 66
  1
  0
VERTEX
  8
gg1
 10
1.190000
 20
0.155000
  0
VERTEX
  8
gg1
 10
1.250000
 20
0.175000
  0
SEQEND
  8
gg1
  0
POLYLINE
  8
gg1
 62
1
 40
0.000000
 41
0.000000
 66
  1
  0
VERTEX
  8
gg1
 10
1.190000
 20
0.195000
  0
VERTEX
  8
gg1
 10
1.250000
 20
0.175000
  0
SEQEND
  8
gg1
  0
POLYLINE
  8
gg1
 62
1
 40
0.000000
 41
0.000000
 66
  1
  0
VERTEX
  8
gg1
 10
0.650000
 20
0.175000
  0
VERTEX
  8
gg1
 10
0.773050
 20
0.175000
  0
SEQEND
  8
gg1
  0
POLYLINE
  8
gg1
 62
1
 40
0.000000
 41
0.000000
 66
  1
  0
VERTEX
  8
gg1
 10
1.114950
 20
0.175000
  0
VERTEX
  8
gg1
 10
1.250000
 20
0.175000
  0
SEQEND
  8
gg1
  0
POLYLINE
  8
gg1
 62
1
 40
0.000000
 41
0.000000
 66
  1
  0
VERTEX
  8
gg1
 10
0.650000
 20
0.165000
  0
VERTEX
  8
gg1
 10
0.650000
 20
0.237500
  0
SEQEND
  8
gg1
  0
POLYLINE
  8
gg1
 62
1
 40
0.000000
 41
0.000000
 66
  1
  0
VERTEX
  8
gg1
 10
1.250000
 20
0.165000
  0
VERTEX
  8
gg1
 10
1.250000
 20
0.237500
  0
SEQEND
  8
gg1
  0
POLYLINE
  8
gg1
 62
1
 40
0.000000
 41
0.000000
 66
  1
  0
VERTEX
  8
gg1
 10
0.650000
 20
0.550000
  0
VERTEX
  8
gg1
 10
1.250000
 20
0.550000
  0
SEQEND
  8
gg1
  0
POLYLINE
  8
gg1
 62
1
 40
0.000000
 41
0.000000
 66
  1
  0
VERTEX
  8
gg1
 10
0.650000
 20
0.250000
  0
VERTEX
  8
gg1
 10
0.650000
 20
0.550000
  0
SEQEND
  8
gg1
  0
POLYLINE
  8
gg1
 62
1
 40
0.000000
 41
0.000000
 66
  1
  0
VERTEX
  8
gg1
 10
1.250000
 20
0.250000
  0
VERTEX
  8
gg1
 10
1.250000
 20
0.550000
  0
SEQEND
  8
gg1
  0
POLYLINE
  8
gg1
 62
1
 40
0.000000
 41
0.000000
 66
  1
  0
VERTEX
  8
gg1
 10
0.650000
 20
0.250000
  0
VERTEX
  8
gg1
 10
1.250000
 20
0.250000
  0
SEQEND
  8
gg1
  0
POLYLINE
  8
gg1
 62
1
 40
0.000000
 41
0.000000
 66
  1
  0
VERTEX
  8
gg1
 10
0.680000
 20
0.400000
  0
VERTEX
  8
gg1
 10
0.720000
 20
0.400000
  0
SEQEND
  8
gg1
  0
POLYLINE
  8
gg1
 62
1
 40
0.000000
 41
0.000000
 66
  1
  0
VERTEX
  8
gg1
 10
0.700000
 20
0.380000
  0
VERTEX
  8
gg1
 10
0.700000
 20
0.420000
  0
SEQEND
  8
gg1
  0
POLYLINE
  8
gg1
 62
1
 40
0.000000
 41
0.000000
 66
  1
  0
VERTEX
  8
gg1
 10
0.680000
 20
0.500000
  0
VERTEX
  8
gg1
 10
0.720000
 20
0.500000
  0
SEQEND
  8
gg1
  0
POLYLINE
  8
gg1
 62
1
 40
0.000000
 41
0.000000
 66
  1
  0
VERTEX
  8
gg1
 10
0.700000
 20
0.480000
  0
VERTEX
  8
gg1
 10
0.700000
 20
0.520000
  0
SEQEND
  8
gg1
  0
POLYLINE
  8
gg1
 62
1
 40
0.000000
 41
0.000000
 66
  1
  0
VERTEX
  8
gg1
 10
0.680000
 20
0.300000
  0
VERTEX
  8
gg1
 10
0.720000
 20
0.300000
  0
SEQEND
  8
gg1
  0
POLYLINE
  8
gg1
 62
1
 40
0.000000
 41
0.000000
 66
  1
  0
VERTEX
  8
gg1
 10
0.700000
 20
0.280000
  0
VERTEX
  8
gg1
 10
0.700000
 20
0.320000
  0
SEQEND
  8
gg1
  0
POLYLINE
  8
gg1
 62
1
 40
0.000000
 41
0.000000
 66
  1
  0
VERTEX
  8
gg1
 10
1.180000
 20
0.400000
  0
VERTEX
  8
gg1
 10
1.220000
 20
0.400000
  0
SEQEND
  8
gg1
  0
POLYLINE
  8
gg1
 62
1
 40
0.000000
 41
0.000000
 66
  1
  0
VERTEX
  8
gg1
 10
1.200000
 20
0.380000
  0
VERTEX
  8
gg1
 10
1.200000
 20
0.420000
  0
SEQEND
  8
gg1
  0
POLYLINE
  8
gg1
 62
1
 40
0.000000
 41
0.000000
 66
  1
  0
VERTEX
  8
gg1
 10
1.180000
 20
0.500000
  0
VERTEX
  8
gg1
 10
1.220000
 20
0.500000
  0
SEQEND
  8
gg1
  0
POLYLINE
  8
gg1
 62
1
 40
0.000000
 41
0.000000
 66
  1
  0
VERTEX
  8
gg1
 10
1.200000
 20
0.480000
  0
VERTEX
  8
gg1
 10
1.200000
 20
0.520000
  0
SEQEND
  8
gg1
  0
POLYLINE
  8
gg1
 62
1
 40
0.000000
 41
0.000000
 66
  1
  0
VERTEX
  8
gg1
 10
1.180000
 20
0.300000
  0
VERTEX
  8
gg1
 10
1.220000
 20
0.300000
  0
SEQEND
  8
gg1
  0
POLYLINE
  8
gg1
 62
1
 40
0.000000
 41
0.000000
 66
  1
  0
VERTEX
  8
gg1
 10
1.200000
 20
0.280000
  0
VERTEX
  8
gg1
 10
1.200000
 20
0.320000
  0
SEQEND
  8
gg1
  0
POLYLINE
  8
gg1
 62
1
 40
0.000000
 41
0.000000
 66
  1
  0
VERTEX
  8
gg1
 10
0.453040
 20
0.229050
  0
VERTEX
  8
gg1
 10
0.443040
 20
0.239050
  0
VERTEX
  8
gg1
 10
0.443040
 20
0.259040
  0
VERTEX
  8
gg1
 10
0.453040
 20
0.269040
  0
VERTEX
  8
gg1
 10
0.463030
 20
0.269040
  0
VERTEX
  8
gg1
 10
0.473030
 20
0.259040
  0
VERTEX
  8
gg1
 10
0.473030
 20
0.249040
  0
VERTEX
  8
gg1
 10
0.473030
 20
0.259040
  0
VERTEX
  8
gg1
 10
0.483030
 20
0.269040
  0
VERTEX
  8
gg1
 10
0.493020
 20
0.269040
  0
VERTEX
  8
gg1
 10
0.503020
 20
0.259040
  0
VERTEX
  8
gg1
 10
0.503020
 20
0.239050
  0
VERTEX
  8
gg1
 10
0.493020
 20
0.229050
  0
SEQEND
  8
gg1
  0
POLYLINE
  8
gg1
 62
1
 40
0.000000
 41
0.000000
 66
  1
  0
VERTEX
  8
gg1
 10
0.453040
 20
0.289030
  0
VERTEX
  8
gg1
 10
0.443040
 20
0.299030
  0
VERTEX
  8
gg1
 10
0.443040
 20
0.319020
  0
VERTEX
  8
gg1
 10
0.453040
 20
0.329020
  0
VERTEX
  8
gg1
 10
0.493020
 20
0.329020
  0
VERTEX
  8
gg1
 10
0.503020
 20
0.319020
  0
VERTEX
  8
gg1
 10
0.503020
 20
0.299030
  0
VERTEX
  8
gg1
 10
0.493020
 20
0.289030
  0
VERTEX
  8
gg1
 10
0.453040
 20
0.289030
  0
SEQEND
  8
gg1
  0
POLYLINE
  8
gg1
 62
1
 40
0.000000
 41
0.000000
 66
  1
  0
VERTEX
  8
gg1
 10
0.453040
 20
0.349010
  0
VERTEX
  8
gg1
 10
0.443040
 20
0.359010
  0
VERTEX
  8
gg1
 10
0.443040
 20
0.379000
  0
VERTEX
  8
gg1
 10
0.453040
 20
0.389000
  0
VERTEX
  8
gg1
 10
0.493020
 20
0.389000
  0
VERTEX
  8
gg1
 10
0.503020
 20
0.379000
  0
VERTEX
  8
gg1
 10
0.503020
 20
0.359010
  0
VERTEX
  8
gg1
 10
0.493020
 20
0.349010
  0
VERTEX
  8
gg1
 10
0.453040
 20
0.349010
  0
SEQEND
  8
gg1
  0
POLYLINE
  8
gg1
 62
1
 40
0.000000
 41
0.000000
 66
  1
  0
VERTEX
  8
gg1
 10
0.503020
 20
0.408990
  0
VERTEX
  8
gg1
 10
0.463030
 20
0.408990
  0
VERTEX
  8
gg1
 10
0.463030
 20
0.418990
  0
VERTEX
  8
gg1
 10
0.473030
 20
0.428990
  0
VERTEX
  8
gg1
 10
0.503020
 20
0.428990
  0
VERTEX
  8
gg1
 10
0.473030
 20
0.428990
  0
VERTEX
  8
gg1
 10
0.463030
 20
0.438980
  0
VERTEX
  8
gg1
 10
0.473030
 20
0.448980
  0
VERTEX
  8
gg1
 10
0.503020
 20
0.448980
  0
SEQEND
  8
gg1
  0
POLYLINE
  8
gg1
 62
1
 40
0.000000
 41
0.000000
 66
  1
  0
VERTEX
  8
gg1
 10
0.503020
 20
0.468970
  0
VERTEX
  8
gg1
 10
0.503020
 20
0.488970
  0
VERTEX
  8
gg1
 10
0.503020
 20
0.478970
  0
VERTEX
  8
gg1
 10
0.463030
 20
0.478970
  0
VERTEX
  8
gg1
 10
0.463030
 20
0.468970
  0
SEQEND
  8
gg1
  0
POLYLINE
  8
gg1
 62
1
 40
0.000000
 41
0.000000
 66
  1
  0
VERTEX
  8
gg1
 10
0.503020
 20
0.518960
  0
VERTEX
  8
gg1
 10
0.503020
 20
0.538950
  0
VERTEX
  8
gg1
 10
0.503020
 20
0.528950
  0
VERTEX
  8
gg1
 10
0.443040
 20
0.528950
  0
VERTEX
  8
gg1
 10
0.443040
 20
0.518960
  0
SEQEND
  8
gg1
  0
POLYLINE
  8
gg1
 62
1
 40
0.000000
 41
0.000000
 66
  1
  0
VERTEX
  8
gg1
 10
0.829040
 20
0.198990
  0
VERTEX
  8
gg1
 10
0.809040
 20
0.188990
  0
VERTEX
  8
gg1
 10
0.789050
 20
0.169000
  0
VERTEX
  8
gg1
 10
0.789050
 20
0.149010
  0
VERTEX
  8
gg1
 10
0.799050
 20
0.139010
  0
VERTEX
  8
gg1
 10
0.819040
 20
0.139010
  0
VERTEX
  8
gg1
 10
0.829040
 20
0.149010
  0
VERTEX
  8
gg1
 10
0.829040
 20
0.159000
  0
VERTEX
  8
gg1
 10
0.819040
 20
0.169000
  0
VERTEX
  8
gg1
 10
0.789050
 20
0.169000
  0
SEQEND
  8
gg1
  0
POLYLINE
  8
gg1
 62
1
 40
0.000000
 41
0.000000
 66
  1
  0
VERTEX
  8
gg1
 10
0.849030
 20
0.188990
  0
VERTEX
  8
gg1
 10
0.859030
 20
0.198990
  0
VERTEX
  8
gg1
 10
0.879020
 20
0.198990
  0
VERTEX
  8
gg1
 10
0.889020
 20
0.188990
  0
VERTEX
  8
gg1
 10
0.889020
 20
0.149010
  0
VERTEX
  8
gg1
 10
0.879020
 20
0.139010
  0
VERTEX
  8
gg1
 10
0.859030
 20
0.139010
  0
VERTEX
  8
gg1
 10
0.849030
 20
0.149010
  0
VERTEX
  8
gg1
 10
0.849030
 20
0.188990
  0
SEQEND
  8
gg1
  0
POLYLINE
  8
gg1
 62
1
 40
0.000000
 41
0.000000
 66
  1
  0
VERTEX
  8
gg1
 10
0.909010
 20
0.188990
  0
VERTEX
  8
gg1
 10
0.919010
 20
0.198990
  0
VERTEX
  8
gg1
 10
0.939000
 20
0.198990
  0
VERTEX
  8
gg1
 10
0.949000
 20
0.188990
  0
VERTEX
  8
gg1
 10
0.949000
 20
0.149010
  0
VERTEX
  8
gg1
 10
0.939000
 20
0.139010
  0
VERTEX
  8
gg1
 10
0.919010
 20
0.139010
  0
VERTEX
  8
gg1
 10
0.909010
 20
0.149010
  0
VERTEX
  8
gg1
 10
0.909010
 20
0.188990
  0
SEQEND
  8
gg1
  0
POLYLINE
  8
gg1
 62
1
 40
0.000000
 41
0.000000
 66
  1
  0
VERTEX
  8
gg1
 10
0.968990
 20
0.139010
  0
VERTEX
  8
gg1
 10
0.968990
 20
0.179000
  0
VERTEX
  8
gg1
 10
0.978990
 20
0.179000
  0
VERTEX
  8
gg1
 10
0.988990
 20
0.169000
  0
VERTEX
  8
gg1
 10
0.988990
 20
0.139010
  0
VERTEX
  8
gg1
 10
0.988990
 20
0.169000
  0
VERTEX
  8
gg1
 10
0.998980
 20
0.179000
  0
VERTEX
  8
gg1
 10
1.008980
 20
0.169000
  0
VERTEX
  8
gg1
 10
1.008980
 20
0.139010
  0
SEQEND
  8
gg1
  0
POLYLINE
  8
gg1
 62
1
 40
0.000000
 41
0.000000
 66
  1
  0
VERTEX
  8
gg1
 10
1.028970
 20
0.139010
  0
VERTEX
  8
gg1
 10
1.048970
 20
0.139010
  0
VERTEX
  8
gg1
 10
1.038970
 20
0.139010
  0
VERTEX
  8
gg1
 10
1.038970
 20
0.179000
  0
VERTEX
  8
gg1
 10
1.028970
 20
0.179000
  0
SEQEND
  8
gg1
  0
POLYLINE
  8
gg1
 62
1
 40
0.000000
 41
0.000000
 66
  1
  0
VERTEX
  8
gg1
 10
1.078960
 20
0.139010
  0
VERTEX
  8
gg1
 10
1.098950
 20
0.139010
  0
VERTEX
  8
gg1
 10
1.088950
 20
0.139010
  0
VERTEX
  8
gg1
 10
1.088950
 20
0.198990
  0
VERTEX
  8
gg1
 10
1.078960
 20
0.198990
  0
SEQEND
  8
gg1
  0
ENDSEC
  0
EOF
