  0
SECTION
  2
HEADER
  9
$EXTMIN
 10
187.274200
 20
377.469400
  9
$EXTMAX
 10
223.647000
 20
411.607000
  9
$LIMMIN
 10
187.274200
 20
377.469400
  9
$LIMMAX
 10
223.647000
 20
411.607000
  9
$FILLMODE
 70
  1
  0
ENDSEC
  0
SECTION
  2
TABLES
  0
TABLE
  2
LTYPE
 70
  1
  0
LTYPE
  2
CONTINUOUS
 70
 64
  3
Solid line
 72
 65
 73
  0
 40
0.0
  0
ENDTAB
  0
TABLE
  2
LAYER
 70
 1
  0
LAYER
  2
0
 70
  0
 62
7
  6
CONTINUOUS
  0
LAYER
  2
gg1
 70
  0
 62
1
  6
CONTINUOUS
  0
ENDTAB
  0
TABLE
  2
STYLE
 70
  1
  0
STYLE
  2
STANDARD
 70
  0
 40
0.0
 41
1.0
 50
0.0
 71
  0
 42
0.2
  3
txt
  4

  0
ENDTAB
  0
ENDSEC
  0
SECTION
  2
BLOCKS
  0
BLOCK
  8
0
  2
D10
 70
64
 10
0.0
 20
0.0
  3
D10
  0
CIRCLE
  8
0
 10
0.000000
 20
0.000000
 40
0.063500
 0
ENDBLK
  8
0
  0
BLOCK
  8
0
  2
D11
 70
64
 10
0.0
 20
0.0
  3
D11
  0
CIRCLE
  8
0
 10
0.000000
 20
0.000000
 40
0.127000
 0
ENDBLK
  8
0
  0
BLOCK
  8
0
  2
D12
 70
64
 10
0.0
 20
0.0
  3
D12
  0
CIRCLE
  8
0
 10
0.000000
 20
0.000000
 40
0.076200
 0
ENDBLK
  8
0
  0
ENDSEC
  0
SECTION
  2
ENTITIES
  0
POLYLINE
  8
gg1
 62
1
 40
0.000000
 41
0.000000
 66
  1
  0
VERTEX
  8
gg1
 10
190.500381
 20
381.000762
  0
VERTEX
  8
gg1
 10
190.500381
 20
411.480823
  0
VERTEX
  8
gg1
 10
223.520447
 20
411.480823
  0
SEQEND
  8
gg1
  0
POLYLINE
  8
gg1
 62
1
 40
0.000000
 41
0.000000
 66
  1
  0
VERTEX
  8
gg1
 10
223.520447
 20
381.000762
  0
VERTEX
  8
gg1
 10
223.520447
 20
411.480823
  0
SEQEND
  8
gg1
  0
POLYLINE
  8
gg1
 62
1
 40
0.000000
 41
0.000000
 66
  1
  0
VERTEX
  8
gg1
 10
190.500381
 20
381.000762
  0
VERTEX
  8
gg1
 10
223.520447
 20
381.000762
  0
SEQEND
  8
gg1
  0
POLYLINE
  8
gg1
 62
1
 40
0.000000
 41
0.000000
 66
  1
  0
VERTEX
  8
gg1
 10
209.042418
 20
405.130810
  0
VERTEX
  8
gg1
 10
210.058420
 20
405.130810
  0
SEQEND
  8
gg1
  0
POLYLINE
  8
gg1
 62
1
 40
0.000000
 41
0.000000
 66
  1
  0
VERTEX
  8
gg1
 10
209.550419
 20
404.622809
  0
VERTEX
  8
gg1
 10
209.550419
 20
405.638811
  0
SEQEND
  8
gg1
  0
POLYLINE
  8
gg1
 62
1
 40
0.000000
 41
0.000000
 66
  1
  0
VERTEX
  8
gg1
 10
209.042418
 20
410.210820
  0
VERTEX
  8
gg1
 10
210.058420
 20
410.210820
  0
SEQEND
  8
gg1
  0
POLYLINE
  8
gg1
 62
1
 40
0.000000
 41
0.000000
 66
  1
  0
VERTEX
  8
gg1
 10
209.550419
 20
409.702819
  0
VERTEX
  8
gg1
 10
209.550419
 20
410.718821
  0
SEQEND
  8
gg1
  0
POLYLINE
  8
gg1
 62
1
 40
0.000000
 41
0.000000
 66
  1
  0
VERTEX
  8
gg1
 10
196.342393
 20
382.270765
  0
VERTEX
  8
gg1
 10
197.358395
 20
382.270765
  0
SEQEND
  8
gg1
  0
POLYLINE
  8
gg1
 62
1
 40
0.000000
 41
0.000000
 66
  1
  0
VERTEX
  8
gg1
 10
196.850394
 20
381.762764
  0
VERTEX
  8
gg1
 10
196.850394
 20
382.778766
  0
SEQEND
  8
gg1
  0
POLYLINE
  8
gg1
 62
1
 40
0.000000
 41
0.000000
 66
  1
  0
VERTEX
  8
gg1
 10
198.882398
 20
382.270765
  0
VERTEX
  8
gg1
 10
199.898400
 20
382.270765
  0
SEQEND
  8
gg1
  0
POLYLINE
  8
gg1
 62
1
 40
0.000000
 41
0.000000
 66
  1
  0
VERTEX
  8
gg1
 10
199.390399
 20
381.762764
  0
VERTEX
  8
gg1
 10
199.390399
 20
382.778766
  0
SEQEND
  8
gg1
  0
POLYLINE
  8
gg1
 62
1
 40
0.000000
 41
0.000000
 66
  1
  0
VERTEX
  8
gg1
 10
201.422403
 20
382.270765
  0
VERTEX
  8
gg1
 10
202.438405
 20
382.270765
  0
SEQEND
  8
gg1
  0
POLYLINE
  8
gg1
 62
1
 40
0.000000
 41
0.000000
 66
  1
  0
VERTEX
  8
gg1
 10
201.930404
 20
381.762764
  0
VERTEX
  8
gg1
 10
201.930404
 20
382.778766
  0
SEQEND
  8
gg1
  0
POLYLINE
  8
gg1
 62
1
 40
0.000000
 41
0.000000
 66
  1
  0
VERTEX
  8
gg1
 10
203.962408
 20
382.270765
  0
VERTEX
  8
gg1
 10
204.978410
 20
382.270765
  0
SEQEND
  8
gg1
  0
POLYLINE
  8
gg1
 62
1
 40
0.000000
 41
0.000000
 66
  1
  0
VERTEX
  8
gg1
 10
204.470409
 20
381.762764
  0
VERTEX
  8
gg1
 10
204.470409
 20
382.778766
  0
SEQEND
  8
gg1
  0
POLYLINE
  8
gg1
 62
1
 40
0.000000
 41
0.000000
 66
  1
  0
VERTEX
  8
gg1
 10
191.262383
 20
392.430785
  0
VERTEX
  8
gg1
 10
192.278385
 20
392.430785
  0
SEQEND
  8
gg1
  0
POLYLINE
  8
gg1
 62
1
 40
0.000000
 41
0.000000
 66
  1
  0
VERTEX
  8
gg1
 10
191.770384
 20
391.922784
  0
VERTEX
  8
gg1
 10
191.770384
 20
392.938786
  0
SEQEND
  8
gg1
  0
POLYLINE
  8
gg1
 62
1
 40
0.000000
 41
0.000000
 66
  1
  0
VERTEX
  8
gg1
 10
191.262383
 20
394.970790
  0
VERTEX
  8
gg1
 10
192.278385
 20
394.970790
  0
SEQEND
  8
gg1
  0
POLYLINE
  8
gg1
 62
1
 40
0.000000
 41
0.000000
 66
  1
  0
VERTEX
  8
gg1
 10
191.770384
 20
394.462789
  0
VERTEX
  8
gg1
 10
191.770384
 20
395.478791
  0
SEQEND
  8
gg1
  0
POLYLINE
  8
gg1
 62
1
 40
0.000000
 41
0.000000
 66
  1
  0
VERTEX
  8
gg1
 10
191.262383
 20
397.510795
  0
VERTEX
  8
gg1
 10
192.278385
 20
397.510795
  0
SEQEND
  8
gg1
  0
POLYLINE
  8
gg1
 62
1
 40
0.000000
 41
0.000000
 66
  1
  0
VERTEX
  8
gg1
 10
191.770384
 20
397.002794
  0
VERTEX
  8
gg1
 10
191.770384
 20
398.018796
  0
SEQEND
  8
gg1
  0
POLYLINE
  8
gg1
 62
1
 40
0.000000
 41
0.000000
 66
  1
  0
VERTEX
  8
gg1
 10
191.262383
 20
400.050800
  0
VERTEX
  8
gg1
 10
192.278385
 20
400.050800
  0
SEQEND
  8
gg1
  0
POLYLINE
  8
gg1
 62
1
 40
0.000000
 41
0.000000
 66
  1
  0
VERTEX
  8
gg1
 10
191.770384
 20
399.542799
  0
VERTEX
  8
gg1
 10
191.770384
 20
400.558801
  0
SEQEND
  8
gg1
  0
POLYLINE
  8
gg1
 62
1
 40
0.000000
 41
0.000000
 66
  1
  0
VERTEX
  8
gg1
 10
191.262383
 20
402.590805
  0
VERTEX
  8
gg1
 10
192.278385
 20
402.590805
  0
SEQEND
  8
gg1
  0
POLYLINE
  8
gg1
 62
1
 40
0.000000
 41
0.000000
 66
  1
  0
VERTEX
  8
gg1
 10
191.770384
 20
402.082804
  0
VERTEX
  8
gg1
 10
191.770384
 20
403.098806
  0
SEQEND
  8
gg1
  0
POLYLINE
  8
gg1
 62
1
 40
0.000000
 41
0.000000
 66
  1
  0
VERTEX
  8
gg1
 10
191.262383
 20
389.890780
  0
VERTEX
  8
gg1
 10
192.278385
 20
389.890780
  0
SEQEND
  8
gg1
  0
POLYLINE
  8
gg1
 62
1
 40
0.000000
 41
0.000000
 66
  1
  0
VERTEX
  8
gg1
 10
191.770384
 20
389.382779
  0
VERTEX
  8
gg1
 10
191.770384
 20
390.398781
  0
SEQEND
  8
gg1
  0
POLYLINE
  8
gg1
 62
1
 40
0.000000
 41
0.000000
 66
  1
  0
VERTEX
  8
gg1
 10
191.262383
 20
387.350775
  0
VERTEX
  8
gg1
 10
192.278385
 20
387.350775
  0
SEQEND
  8
gg1
  0
POLYLINE
  8
gg1
 62
1
 40
0.000000
 41
0.000000
 66
  1
  0
VERTEX
  8
gg1
 10
191.770384
 20
386.842774
  0
VERTEX
  8
gg1
 10
191.770384
 20
387.858776
  0
SEQEND
  8
gg1
  0
POLYLINE
  8
gg1
 62
1
 40
0.000000
 41
0.000000
 66
  1
  0
VERTEX
  8
gg1
 10
191.262383
 20
384.810770
  0
VERTEX
  8
gg1
 10
192.278385
 20
384.810770
  0
SEQEND
  8
gg1
  0
POLYLINE
  8
gg1
 62
1
 40
0.000000
 41
0.000000
 66
  1
  0
VERTEX
  8
gg1
 10
191.770384
 20
384.302769
  0
VERTEX
  8
gg1
 10
191.770384
 20
385.318771
  0
SEQEND
  8
gg1
  0
POLYLINE
  8
gg1
 62
1
 40
0.000000
 41
0.000000
 66
  1
  0
VERTEX
  8
gg1
 10
191.262383
 20
382.270765
  0
VERTEX
  8
gg1
 10
192.278385
 20
382.270765
  0
SEQEND
  8
gg1
  0
POLYLINE
  8
gg1
 62
1
 40
0.000000
 41
0.000000
 66
  1
  0
VERTEX
  8
gg1
 10
191.770384
 20
381.762764
  0
VERTEX
  8
gg1
 10
191.770384
 20
382.778766
  0
SEQEND
  8
gg1
  0
POLYLINE
  8
gg1
 62
1
 40
0.000000
 41
0.000000
 66
  1
  0
VERTEX
  8
gg1
 10
221.742443
 20
405.130810
  0
VERTEX
  8
gg1
 10
222.758446
 20
405.130810
  0
SEQEND
  8
gg1
  0
POLYLINE
  8
gg1
 62
1
 40
0.000000
 41
0.000000
 66
  1
  0
VERTEX
  8
gg1
 10
222.250445
 20
404.622809
  0
VERTEX
  8
gg1
 10
222.250445
 20
405.638811
  0
SEQEND
  8
gg1
  0
POLYLINE
  8
gg1
 62
1
 40
0.000000
 41
0.000000
 66
  1
  0
VERTEX
  8
gg1
 10
221.742443
 20
402.590805
  0
VERTEX
  8
gg1
 10
222.758446
 20
402.590805
  0
SEQEND
  8
gg1
  0
POLYLINE
  8
gg1
 62
1
 40
0.000000
 41
0.000000
 66
  1
  0
VERTEX
  8
gg1
 10
222.250445
 20
402.082804
  0
VERTEX
  8
gg1
 10
222.250445
 20
403.098806
  0
SEQEND
  8
gg1
  0
POLYLINE
  8
gg1
 62
1
 40
0.000000
 41
0.000000
 66
  1
  0
VERTEX
  8
gg1
 10
221.742443
 20
400.050800
  0
VERTEX
  8
gg1
 10
222.758446
 20
400.050800
  0
SEQEND
  8
gg1
  0
POLYLINE
  8
gg1
 62
1
 40
0.000000
 41
0.000000
 66
  1
  0
VERTEX
  8
gg1
 10
222.250445
 20
399.542799
  0
VERTEX
  8
gg1
 10
222.250445
 20
400.558801
  0
SEQEND
  8
gg1
  0
POLYLINE
  8
gg1
 62
1
 40
0.000000
 41
0.000000
 66
  1
  0
VERTEX
  8
gg1
 10
221.742443
 20
397.510795
  0
VERTEX
  8
gg1
 10
222.758446
 20
397.510795
  0
SEQEND
  8
gg1
  0
POLYLINE
  8
gg1
 62
1
 40
0.000000
 41
0.000000
 66
  1
  0
VERTEX
  8
gg1
 10
222.250445
 20
397.002794
  0
VERTEX
  8
gg1
 10
222.250445
 20
398.018796
  0
SEQEND
  8
gg1
  0
POLYLINE
  8
gg1
 62
1
 40
0.000000
 41
0.000000
 66
  1
  0
VERTEX
  8
gg1
 10
214.661929
 20
406.578613
  0
VERTEX
  8
gg1
 10
215.169930
 20
406.578613
  0
SEQEND
  8
gg1
  0
POLYLINE
  8
gg1
 62
1
 40
0.000000
 41
0.000000
 66
  1
  0
VERTEX
  8
gg1
 10
214.915930
 20
406.324613
  0
VERTEX
  8
gg1
 10
214.915930
 20
406.832614
  0
SEQEND
  8
gg1
  0
POLYLINE
  8
gg1
 62
1
 40
0.000000
 41
0.000000
 66
  1
  0
VERTEX
  8
gg1
 10
218.567437
 20
397.990796
  0
VERTEX
  8
gg1
 10
220.091440
 20
397.990796
  0
SEQEND
  8
gg1
  0
POLYLINE
  8
gg1
 62
1
 40
0.000000
 41
0.000000
 66
  1
  0
VERTEX
  8
gg1
 10
219.329439
 20
397.228794
  0
VERTEX
  8
gg1
 10
219.329439
 20
398.752798
  0
SEQEND
  8
gg1
  0
POLYLINE
  8
gg1
 62
1
 40
0.000000
 41
0.000000
 66
  1
  0
VERTEX
  8
gg1
 10
218.567437
 20
394.490789
  0
VERTEX
  8
gg1
 10
220.091440
 20
394.490789
  0
SEQEND
  8
gg1
  0
POLYLINE
  8
gg1
 62
1
 40
0.000000
 41
0.000000
 66
  1
  0
VERTEX
  8
gg1
 10
219.329439
 20
393.728787
  0
VERTEX
  8
gg1
 10
219.329439
 20
395.252791
  0
SEQEND
  8
gg1
  0
POLYLINE
  8
gg1
 62
1
 40
0.000000
 41
0.000000
 66
  1
  0
VERTEX
  8
gg1
 10
218.567437
 20
390.990782
  0
VERTEX
  8
gg1
 10
220.091440
 20
390.990782
  0
SEQEND
  8
gg1
  0
POLYLINE
  8
gg1
 62
1
 40
0.000000
 41
0.000000
 66
  1
  0
VERTEX
  8
gg1
 10
219.329439
 20
390.228780
  0
VERTEX
  8
gg1
 10
219.329439
 20
391.752784
  0
SEQEND
  8
gg1
  0
POLYLINE
  8
gg1
 62
1
 40
0.000000
 41
0.000000
 66
  1
  0
VERTEX
  8
gg1
 10
218.567437
 20
387.490775
  0
VERTEX
  8
gg1
 10
220.091440
 20
387.490775
  0
SEQEND
  8
gg1
  0
POLYLINE
  8
gg1
 62
1
 40
0.000000
 41
0.000000
 66
  1
  0
VERTEX
  8
gg1
 10
219.329439
 20
386.728773
  0
VERTEX
  8
gg1
 10
219.329439
 20
388.252777
  0
SEQEND
  8
gg1
  0
POLYLINE
  8
gg1
 62
1
 40
0.000000
 41
0.000000
 66
  1
  0
VERTEX
  8
gg1
 10
218.567437
 20
404.990810
  0
VERTEX
  8
gg1
 10
220.091440
 20
404.990810
  0
SEQEND
  8
gg1
  0
POLYLINE
  8
gg1
 62
1
 40
0.000000
 41
0.000000
 66
  1
  0
VERTEX
  8
gg1
 10
219.329439
 20
404.228808
  0
VERTEX
  8
gg1
 10
219.329439
 20
405.752812
  0
SEQEND
  8
gg1
  0
POLYLINE
  8
gg1
 62
1
 40
0.000000
 41
0.000000
 66
  1
  0
VERTEX
  8
gg1
 10
218.567437
 20
401.490803
  0
VERTEX
  8
gg1
 10
220.091440
 20
401.490803
  0
SEQEND
  8
gg1
  0
POLYLINE
  8
gg1
 62
1
 40
0.000000
 41
0.000000
 66
  1
  0
VERTEX
  8
gg1
 10
219.329439
 20
400.728801
  0
VERTEX
  8
gg1
 10
219.329439
 20
402.252805
  0
SEQEND
  8
gg1
  0
POLYLINE
  8
gg1
 62
1
 40
0.000000
 41
0.000000
 66
  1
  0
VERTEX
  8
gg1
 10
191.262383
 20
405.130810
  0
VERTEX
  8
gg1
 10
192.278385
 20
405.130810
  0
SEQEND
  8
gg1
  0
POLYLINE
  8
gg1
 62
1
 40
0.000000
 41
0.000000
 66
  1
  0
VERTEX
  8
gg1
 10
191.770384
 20
404.622809
  0
VERTEX
  8
gg1
 10
191.770384
 20
405.638811
  0
SEQEND
  8
gg1
  0
POLYLINE
  8
gg1
 62
1
 40
0.000000
 41
0.000000
 66
  1
  0
VERTEX
  8
gg1
 10
191.262383
 20
407.670815
  0
VERTEX
  8
gg1
 10
192.278385
 20
407.670815
  0
SEQEND
  8
gg1
  0
POLYLINE
  8
gg1
 62
1
 40
0.000000
 41
0.000000
 66
  1
  0
VERTEX
  8
gg1
 10
191.770384
 20
407.162814
  0
VERTEX
  8
gg1
 10
191.770384
 20
408.178816
  0
SEQEND
  8
gg1
  0
POLYLINE
  8
gg1
 62
1
 40
0.000000
 41
0.000000
 66
  1
  0
VERTEX
  8
gg1
 10
191.262383
 20
410.210820
  0
VERTEX
  8
gg1
 10
192.278385
 20
410.210820
  0
SEQEND
  8
gg1
  0
POLYLINE
  8
gg1
 62
1
 40
0.000000
 41
0.000000
 66
  1
  0
VERTEX
  8
gg1
 10
191.770384
 20
409.702819
  0
VERTEX
  8
gg1
 10
191.770384
 20
410.718821
  0
SEQEND
  8
gg1
  0
POLYLINE
  8
gg1
 62
1
 40
0.000000
 41
0.000000
 66
  1
  0
VERTEX
  8
gg1
 10
221.742443
 20
394.970790
  0
VERTEX
  8
gg1
 10
222.758446
 20
394.970790
  0
SEQEND
  8
gg1
  0
POLYLINE
  8
gg1
 62
1
 40
0.000000
 41
0.000000
 66
  1
  0
VERTEX
  8
gg1
 10
222.250445
 20
394.462789
  0
VERTEX
  8
gg1
 10
222.250445
 20
395.478791
  0
SEQEND
  8
gg1
  0
POLYLINE
  8
gg1
 62
1
 40
0.000000
 41
0.000000
 66
  1
  0
VERTEX
  8
gg1
 10
221.742443
 20
392.430785
  0
VERTEX
  8
gg1
 10
222.758446
 20
392.430785
  0
SEQEND
  8
gg1
  0
POLYLINE
  8
gg1
 62
1
 40
0.000000
 41
0.000000
 66
  1
  0
VERTEX
  8
gg1
 10
222.250445
 20
391.922784
  0
VERTEX
  8
gg1
 10
222.250445
 20
392.938786
  0
SEQEND
  8
gg1
  0
POLYLINE
  8
gg1
 62
1
 40
0.000000
 41
0.000000
 66
  1
  0
VERTEX
  8
gg1
 10
221.742443
 20
389.890780
  0
VERTEX
  8
gg1
 10
222.758446
 20
389.890780
  0
SEQEND
  8
gg1
  0
POLYLINE
  8
gg1
 62
1
 40
0.000000
 41
0.000000
 66
  1
  0
VERTEX
  8
gg1
 10
222.250445
 20
389.382779
  0
VERTEX
  8
gg1
 10
222.250445
 20
390.398781
  0
SEQEND
  8
gg1
  0
POLYLINE
  8
gg1
 62
1
 40
0.000000
 41
0.000000
 66
  1
  0
VERTEX
  8
gg1
 10
221.742443
 20
387.350775
  0
VERTEX
  8
gg1
 10
222.758446
 20
387.350775
  0
SEQEND
  8
gg1
  0
POLYLINE
  8
gg1
 62
1
 40
0.000000
 41
0.000000
 66
  1
  0
VERTEX
  8
gg1
 10
222.250445
 20
386.842774
  0
VERTEX
  8
gg1
 10
222.250445
 20
387.858776
  0
SEQEND
  8
gg1
  0
POLYLINE
  8
gg1
 62
1
 40
0.000000
 41
0.000000
 66
  1
  0
VERTEX
  8
gg1
 10
219.888240
 20
383.540767
  0
VERTEX
  8
gg1
 10
222.072644
 20
383.540767
  0
SEQEND
  8
gg1
  0
POLYLINE
  8
gg1
 62
1
 40
0.000000
 41
0.000000
 66
  1
  0
VERTEX
  8
gg1
 10
220.980442
 20
382.448565
  0
VERTEX
  8
gg1
 10
220.980442
 20
384.632969
  0
SEQEND
  8
gg1
  0
POLYLINE
  8
gg1
 62
1
 40
0.000000
 41
0.000000
 66
  1
  0
VERTEX
  8
gg1
 10
219.888240
 20
408.940818
  0
VERTEX
  8
gg1
 10
222.072644
 20
408.940818
  0
SEQEND
  8
gg1
  0
POLYLINE
  8
gg1
 62
1
 40
0.000000
 41
0.000000
 66
  1
  0
VERTEX
  8
gg1
 10
220.980442
 20
407.848616
  0
VERTEX
  8
gg1
 10
220.980442
 20
410.033020
  0
SEQEND
  8
gg1
  0
POLYLINE
  8
gg1
 62
1
 40
0.000000
 41
0.000000
 66
  1
  0
VERTEX
  8
gg1
 10
190.500381
 20
378.460757
  0
VERTEX
  8
gg1
 10
192.024384
 20
378.968758
  0
SEQEND
  8
gg1
  0
POLYLINE
  8
gg1
 62
1
 40
0.000000
 41
0.000000
 66
  1
  0
VERTEX
  8
gg1
 10
190.500381
 20
378.460757
  0
VERTEX
  8
gg1
 10
192.024384
 20
377.952756
  0
SEQEND
  8
gg1
  0
POLYLINE
  8
gg1
 62
1
 40
0.000000
 41
0.000000
 66
  1
  0
VERTEX
  8
gg1
 10
221.996444
 20
377.952756
  0
VERTEX
  8
gg1
 10
223.520447
 20
378.460757
  0
SEQEND
  8
gg1
  0
POLYLINE
  8
gg1
 62
1
 40
0.000000
 41
0.000000
 66
  1
  0
VERTEX
  8
gg1
 10
221.996444
 20
378.968758
  0
VERTEX
  8
gg1
 10
223.520447
 20
378.460757
  0
SEQEND
  8
gg1
  0
POLYLINE
  8
gg1
 62
1
 40
0.000000
 41
0.000000
 66
  1
  0
VERTEX
  8
gg1
 10
190.500381
 20
378.460757
  0
VERTEX
  8
gg1
 10
201.627103
 20
378.460757
  0
SEQEND
  8
gg1
  0
POLYLINE
  8
gg1
 62
1
 40
0.000000
 41
0.000000
 66
  1
  0
VERTEX
  8
gg1
 10
211.580923
 20
378.460757
  0
VERTEX
  8
gg1
 10
223.520447
 20
378.460757
  0
SEQEND
  8
gg1
  0
POLYLINE
  8
gg1
 62
1
 40
0.000000
 41
0.000000
 66
  1
  0
VERTEX
  8
gg1
 10
190.500381
 20
378.206756
  0
VERTEX
  8
gg1
 10
190.500381
 20
380.646761
  0
SEQEND
  8
gg1
  0
POLYLINE
  8
gg1
 62
1
 40
0.000000
 41
0.000000
 66
  1
  0
VERTEX
  8
gg1
 10
223.520447
 20
378.206756
  0
VERTEX
  8
gg1
 10
223.520447
 20
380.746761
  0
SEQEND
  8
gg1
  0
POLYLINE
  8
gg1
 62
1
 40
0.000000
 41
0.000000
 66
  1
  0
VERTEX
  8
gg1
 10
187.452375
 20
382.524765
  0
VERTEX
  8
gg1
 10
187.960376
 20
381.000762
  0
VERTEX
  8
gg1
 10
188.468377
 20
382.524765
  0
SEQEND
  8
gg1
  0
POLYLINE
  8
gg1
 62
1
 40
0.000000
 41
0.000000
 66
  1
  0
VERTEX
  8
gg1
 10
187.960376
 20
411.480823
  0
VERTEX
  8
gg1
 10
188.468377
 20
409.956820
  0
SEQEND
  8
gg1
  0
POLYLINE
  8
gg1
 62
1
 40
0.000000
 41
0.000000
 66
  1
  0
VERTEX
  8
gg1
 10
187.452375
 20
409.956820
  0
VERTEX
  8
gg1
 10
187.960376
 20
411.480823
  0
SEQEND
  8
gg1
  0
POLYLINE
  8
gg1
 62
1
 40
0.000000
 41
0.000000
 66
  1
  0
VERTEX
  8
gg1
 10
187.960376
 20
381.000762
  0
VERTEX
  8
gg1
 10
187.960376
 20
390.857482
  0
SEQEND
  8
gg1
  0
POLYLINE
  8
gg1
 62
1
 40
0.000000
 41
0.000000
 66
  1
  0
VERTEX
  8
gg1
 10
187.960376
 20
400.811302
  0
VERTEX
  8
gg1
 10
187.960376
 20
411.480823
  0
SEQEND
  8
gg1
  0
POLYLINE
  8
gg1
 62
1
 40
0.000000
 41
0.000000
 66
  1
  0
VERTEX
  8
gg1
 10
187.706375
 20
381.000762
  0
VERTEX
  8
gg1
 10
190.182880
 20
381.000762
  0
SEQEND
  8
gg1
  0
POLYLINE
  8
gg1
 62
1
 40
0.000000
 41
0.000000
 66
  1
  0
VERTEX
  8
gg1
 10
187.706375
 20
411.480823
  0
VERTEX
  8
gg1
 10
190.182880
 20
411.480823
  0
SEQEND
  8
gg1
  0
POLYLINE
  8
gg1
 62
1
 40
0.000000
 41
0.000000
 66
  1
  0
VERTEX
  8
gg1
 10
202.033504
 20
377.546555
  0
VERTEX
  8
gg1
 10
202.541305
 20
377.546555
  0
VERTEX
  8
gg1
 10
202.287405
 20
377.546555
  0
VERTEX
  8
gg1
 10
202.287405
 20
379.070058
  0
VERTEX
  8
gg1
 10
202.033504
 20
378.816158
  0
SEQEND
  8
gg1
  0
POLYLINE
  8
gg1
 62
1
 40
0.000000
 41
0.000000
 66
  1
  0
VERTEX
  8
gg1
 10
203.303107
 20
378.816158
  0
VERTEX
  8
gg1
 10
203.557007
 20
379.070058
  0
VERTEX
  8
gg1
 10
204.064808
 20
379.070058
  0
VERTEX
  8
gg1
 10
204.318709
 20
378.816158
  0
VERTEX
  8
gg1
 10
204.318709
 20
378.562257
  0
VERTEX
  8
gg1
 10
204.064808
 20
378.308357
  0
VERTEX
  8
gg1
 10
203.810908
 20
378.308357
  0
VERTEX
  8
gg1
 10
204.064808
 20
378.308357
  0
VERTEX
  8
gg1
 10
204.318709
 20
378.054456
  0
VERTEX
  8
gg1
 10
204.318709
 20
377.800556
  0
VERTEX
  8
gg1
 10
204.064808
 20
377.546555
  0
VERTEX
  8
gg1
 10
203.557007
 20
377.546555
  0
VERTEX
  8
gg1
 10
203.303107
 20
377.800556
  0
SEQEND
  8
gg1
  0
POLYLINE
  8
gg1
 62
1
 40
0.000000
 41
0.000000
 66
  1
  0
VERTEX
  8
gg1
 10
204.826610
 20
378.816158
  0
VERTEX
  8
gg1
 10
205.080510
 20
379.070058
  0
VERTEX
  8
gg1
 10
205.588311
 20
379.070058
  0
VERTEX
  8
gg1
 10
205.842212
 20
378.816158
  0
VERTEX
  8
gg1
 10
205.842212
 20
377.800556
  0
VERTEX
  8
gg1
 10
205.588311
 20
377.546555
  0
VERTEX
  8
gg1
 10
205.080510
 20
377.546555
  0
VERTEX
  8
gg1
 10
204.826610
 20
377.800556
  0
VERTEX
  8
gg1
 10
204.826610
 20
378.816158
  0
SEQEND
  8
gg1
  0
POLYLINE
  8
gg1
 62
1
 40
0.000000
 41
0.000000
 66
  1
  0
VERTEX
  8
gg1
 10
206.350113
 20
378.816158
  0
VERTEX
  8
gg1
 10
206.604013
 20
379.070058
  0
VERTEX
  8
gg1
 10
207.111814
 20
379.070058
  0
VERTEX
  8
gg1
 10
207.365815
 20
378.816158
  0
VERTEX
  8
gg1
 10
207.365815
 20
377.800556
  0
VERTEX
  8
gg1
 10
207.111814
 20
377.546555
  0
VERTEX
  8
gg1
 10
206.604013
 20
377.546555
  0
VERTEX
  8
gg1
 10
206.350113
 20
377.800556
  0
VERTEX
  8
gg1
 10
206.350113
 20
378.816158
  0
SEQEND
  8
gg1
  0
POLYLINE
  8
gg1
 62
1
 40
0.000000
 41
0.000000
 66
  1
  0
VERTEX
  8
gg1
 10
207.873616
 20
377.546555
  0
VERTEX
  8
gg1
 10
207.873616
 20
378.562257
  0
VERTEX
  8
gg1
 10
208.127516
 20
378.562257
  0
VERTEX
  8
gg1
 10
208.381417
 20
378.308357
  0
VERTEX
  8
gg1
 10
208.381417
 20
377.546555
  0
VERTEX
  8
gg1
 10
208.381417
 20
378.308357
  0
VERTEX
  8
gg1
 10
208.635317
 20
378.562257
  0
VERTEX
  8
gg1
 10
208.889318
 20
378.308357
  0
VERTEX
  8
gg1
 10
208.889318
 20
377.546555
  0
SEQEND
  8
gg1
  0
POLYLINE
  8
gg1
 62
1
 40
0.000000
 41
0.000000
 66
  1
  0
VERTEX
  8
gg1
 10
209.397119
 20
377.546555
  0
VERTEX
  8
gg1
 10
209.904920
 20
377.546555
  0
VERTEX
  8
gg1
 10
209.651019
 20
377.546555
  0
VERTEX
  8
gg1
 10
209.651019
 20
378.562257
  0
VERTEX
  8
gg1
 10
209.397119
 20
378.562257
  0
SEQEND
  8
gg1
  0
POLYLINE
  8
gg1
 62
1
 40
0.000000
 41
0.000000
 66
  1
  0
VERTEX
  8
gg1
 10
210.666721
 20
377.546555
  0
VERTEX
  8
gg1
 10
211.174522
 20
377.546555
  0
VERTEX
  8
gg1
 10
210.920622
 20
377.546555
  0
VERTEX
  8
gg1
 10
210.920622
 20
379.070058
  0
VERTEX
  8
gg1
 10
210.666721
 20
379.070058
  0
SEQEND
  8
gg1
  0
POLYLINE
  8
gg1
 62
1
 40
0.000000
 41
0.000000
 66
  1
  0
VERTEX
  8
gg1
 10
188.874478
 20
391.263883
  0
VERTEX
  8
gg1
 10
188.874478
 20
391.771684
  0
VERTEX
  8
gg1
 10
188.874478
 20
391.517783
  0
VERTEX
  8
gg1
 10
187.350975
 20
391.517783
  0
VERTEX
  8
gg1
 10
187.604975
 20
391.263883
  0
SEQEND
  8
gg1
  0
POLYLINE
  8
gg1
 62
1
 40
0.000000
 41
0.000000
 66
  1
  0
VERTEX
  8
gg1
 10
188.874478
 20
393.549087
  0
VERTEX
  8
gg1
 10
188.874478
 20
392.533485
  0
VERTEX
  8
gg1
 10
187.858876
 20
393.549087
  0
VERTEX
  8
gg1
 10
187.604975
 20
393.549087
  0
VERTEX
  8
gg1
 10
187.350975
 20
393.295187
  0
VERTEX
  8
gg1
 10
187.350975
 20
392.787386
  0
VERTEX
  8
gg1
 10
187.604975
 20
392.533485
  0
SEQEND
  8
gg1
  0
POLYLINE
  8
gg1
 62
1
 40
0.000000
 41
0.000000
 66
  1
  0
VERTEX
  8
gg1
 10
187.604975
 20
394.056988
  0
VERTEX
  8
gg1
 10
187.350975
 20
394.310889
  0
VERTEX
  8
gg1
 10
187.350975
 20
394.818690
  0
VERTEX
  8
gg1
 10
187.604975
 20
395.072590
  0
VERTEX
  8
gg1
 10
188.620577
 20
395.072590
  0
VERTEX
  8
gg1
 10
188.874478
 20
394.818690
  0
VERTEX
  8
gg1
 10
188.874478
 20
394.310889
  0
VERTEX
  8
gg1
 10
188.620577
 20
394.056988
  0
VERTEX
  8
gg1
 10
187.604975
 20
394.056988
  0
SEQEND
  8
gg1
  0
POLYLINE
  8
gg1
 62
1
 40
0.000000
 41
0.000000
 66
  1
  0
VERTEX
  8
gg1
 10
187.604975
 20
395.580491
  0
VERTEX
  8
gg1
 10
187.350975
 20
395.834392
  0
VERTEX
  8
gg1
 10
187.350975
 20
396.342193
  0
VERTEX
  8
gg1
 10
187.604975
 20
396.596093
  0
VERTEX
  8
gg1
 10
188.620577
 20
396.596093
  0
VERTEX
  8
gg1
 10
188.874478
 20
396.342193
  0
VERTEX
  8
gg1
 10
188.874478
 20
395.834392
  0
VERTEX
  8
gg1
 10
188.620577
 20
395.580491
  0
VERTEX
  8
gg1
 10
187.604975
 20
395.580491
  0
SEQEND
  8
gg1
  0
POLYLINE
  8
gg1
 62
1
 40
0.000000
 41
0.000000
 66
  1
  0
VERTEX
  8
gg1
 10
188.874478
 20
397.103994
  0
VERTEX
  8
gg1
 10
187.858876
 20
397.103994
  0
VERTEX
  8
gg1
 10
187.858876
 20
397.357895
  0
VERTEX
  8
gg1
 10
188.112776
 20
397.611795
  0
VERTEX
  8
gg1
 10
188.874478
 20
397.611795
  0
VERTEX
  8
gg1
 10
188.112776
 20
397.611795
  0
VERTEX
  8
gg1
 10
187.858876
 20
397.865696
  0
VERTEX
  8
gg1
 10
188.112776
 20
398.119696
  0
VERTEX
  8
gg1
 10
188.874478
 20
398.119696
  0
SEQEND
  8
gg1
  0
POLYLINE
  8
gg1
 62
1
 40
0.000000
 41
0.000000
 66
  1
  0
VERTEX
  8
gg1
 10
188.874478
 20
398.627497
  0
VERTEX
  8
gg1
 10
188.874478
 20
399.135298
  0
VERTEX
  8
gg1
 10
188.874478
 20
398.881398
  0
VERTEX
  8
gg1
 10
187.858876
 20
398.881398
  0
VERTEX
  8
gg1
 10
187.858876
 20
398.627497
  0
SEQEND
  8
gg1
  0
POLYLINE
  8
gg1
 62
1
 40
0.000000
 41
0.000000
 66
  1
  0
VERTEX
  8
gg1
 10
188.874478
 20
399.897100
  0
VERTEX
  8
gg1
 10
188.874478
 20
400.404901
  0
VERTEX
  8
gg1
 10
188.874478
 20
400.151000
  0
VERTEX
  8
gg1
 10
187.350975
 20
400.151000
  0
VERTEX
  8
gg1
 10
187.350975
 20
399.897100
  0
SEQEND
  8
gg1
  0
ENDSEC
  0
EOF
