  0
SECTION
  2
HEADER
  9
$EXTMIN
 10
-0.848000
 20
-0.719000
  9
$EXTMAX
 10
0.399000
 20
0.417000
  9
$LIMMIN
 10
-0.848000
 20
-0.719000
  9
$LIMMAX
 10
0.399000
 20
0.417000
  9
$FILLMODE
 70
  1
  0
ENDSEC
  0
SECTION
  2
TABLES
  0
TABLE
  2
LTYPE
 70
  1
  0
LTYPE
  2
CONTINUOUS
 70
 64
  3
Solid line
 72
 65
 73
  0
 40
0.0
  0
ENDTAB
  0
TABLE
  2
LAYER
 70
 1
  0
LAYER
  2
0
 70
  0
 62
7
  6
CONTINUOUS
  0
LAYER
  2
gg1
 70
  0
 62
1
  6
CONTINUOUS
  0
ENDTAB
  0
TABLE
  2
STYLE
 70
  1
  0
STYLE
  2
STANDARD
 70
  0
 40
0.0
 41
1.0
 50
0.0
 71
  0
 42
0.2
  3
txt
  4

  0
ENDTAB
  0
ENDSEC
  0
SECTION
  2
BLOCKS
  0
BLOCK
  8
0
  2
D10
 70
64
 10
0.0
 20
0.0
  3
D10
  0
CIRCLE
  8
0
 10
0.000000
 20
0.000000
 40
0.002500
 0
ENDBLK
  8
0
  0
BLOCK
  8
0
  2
D11
 70
64
 10
0.0
 20
0.0
  3
D11
  0
CIRCLE
  8
0
 10
0.000000
 20
0.000000
 40
0.005000
 0
ENDBLK
  8
0
  0
BLOCK
  8
0
  2
D12
 70
64
 10
0.0
 20
0.0
  3
D12
  0
CIRCLE
  8
0
 10
0.000000
 20
0.000000
 40
0.003000
 0
ENDBLK
  8
0
  0
BLOCK
  8
0
  2
D13
 70
64
 10
0.0
 20
0.0
  3
D13
  0
CIRCLE
  8
0
 10
0.000000
 20
0.000000
 40
0.001000
 0
ENDBLK
  8
0
  0
ENDSEC
  0
SECTION
  2
ENTITIES
  0
POLYLINE
  8
gg1
 62
1
 40
0.000000
 41
0.000000
 66
  1
  0
VERTEX
  8
gg1
 10
-0.323100
 20
0.225000
  0
VERTEX
  8
gg1
 10
-0.323100
 20
0.225000
  0
VERTEX
  8
gg1
 10
-0.323100
 20
0.225000
 42
0.314037
  0
VERTEX
  8
gg1
 10
-0.323000
 20
-0.225100
  0
VERTEX
  8
gg1
 10
-0.323000
 20
-0.225100
  0
SEQEND
  8
gg1
  0
POLYLINE
  8
gg1
 62
1
 40
0.000000
 41
0.000000
 66
  1
  0
VERTEX
  8
gg1
 10
0.323000
 20
-0.225000
  0
VERTEX
  8
gg1
 10
0.323000
 20
-0.225000
  0
VERTEX
  8
gg1
 10
0.323000
 20
-0.225000
 42
0.313742
  0
VERTEX
  8
gg1
 10
0.323100
 20
0.225000
  0
VERTEX
  8
gg1
 10
0.323100
 20
0.225000
  0
SEQEND
  8
gg1
  0
POLYLINE
  8
gg1
 62
1
 40
0.000000
 41
0.000000
 66
  1
  0
VERTEX
  8
gg1
 10
-0.323000
 20
-0.425000
  0
VERTEX
  8
gg1
 10
0.323000
 20
-0.425000
  0
SEQEND
  8
gg1
  0
POLYLINE
  8
gg1
 62
1
 40
0.000000
 41
0.000000
 66
  1
  0
VERTEX
  8
gg1
 10
-0.323000
 20
0.225000
  0
VERTEX
  8
gg1
 10
0.323000
 20
0.225000
  0
SEQEND
  8
gg1
  0
POLYLINE
  8
gg1
 62
1
 40
0.000000
 41
0.000000
 66
  1
  0
VERTEX
  8
gg1
 10
0.323000
 20
-0.425000
  0
VERTEX
  8
gg1
 10
0.323000
 20
-0.225000
  0
SEQEND
  8
gg1
  0
POLYLINE
  8
gg1
 62
1
 40
0.000000
 41
0.000000
 66
  1
  0
VERTEX
  8
gg1
 10
-0.323000
 20
-0.425000
  0
VERTEX
  8
gg1
 10
-0.323000
 20
-0.225000
  0
SEQEND
  8
gg1
  0
POLYLINE
  8
gg1
 62
1
 40
0.000000
 41
0.000000
 66
  1
  0
VERTEX
  8
gg1
 10
-0.493000
 20
0.000000
  0
VERTEX
  8
gg1
 10
-0.493000
 20
0.310900
  0
SEQEND
  8
gg1
  0
POLYLINE
  8
gg1
 62
1
 40
0.000000
 41
0.000000
 66
  1
  0
VERTEX
  8
gg1
 10
-0.493000
 20
0.000000
  0
VERTEX
  8
gg1
 10
-0.393700
 20
0.000000
  0
SEQEND
  8
gg1
  0
POLYLINE
  8
gg1
 62
1
 40
0.000000
 41
0.000000
 66
  1
  0
VERTEX
  8
gg1
 10
-0.453700
 20
0.020000
  0
VERTEX
  8
gg1
 10
-0.393700
 20
0.000000
  0
SEQEND
  8
gg1
  0
POLYLINE
  8
gg1
 62
1
 40
0.000000
 41
0.000000
 66
  1
  0
VERTEX
  8
gg1
 10
-0.453700
 20
-0.020000
  0
VERTEX
  8
gg1
 10
-0.393700
 20
0.000000
  0
SEQEND
  8
gg1
  0
POLYLINE
  8
gg1
 62
1
 40
0.000000
 41
0.000000
 66
  1
  0
VERTEX
  8
gg1
 10
-0.524000
 20
-0.425000
  0
VERTEX
  8
gg1
 10
-0.333000
 20
-0.425000
  0
SEQEND
  8
gg1
  0
POLYLINE
  8
gg1
 62
1
 40
0.000000
 41
0.000000
 66
  1
  0
VERTEX
  8
gg1
 10
-0.524000
 20
-0.225000
  0
VERTEX
  8
gg1
 10
-0.333000
 20
-0.225000
  0
SEQEND
  8
gg1
  0
POLYLINE
  8
gg1
 62
1
 40
0.000000
 41
0.000000
 66
  1
  0
VERTEX
  8
gg1
 10
-0.514000
 20
-0.425000
  0
VERTEX
  8
gg1
 10
-0.514000
 20
-0.325000
  0
VERTEX
  8
gg1
 10
-0.514000
 20
-0.225000
  0
SEQEND
  8
gg1
  0
POLYLINE
  8
gg1
 62
1
 40
0.000000
 41
0.000000
 66
  1
  0
VERTEX
  8
gg1
 10
-0.514000
 20
-0.425000
  0
VERTEX
  8
gg1
 10
-0.494000
 20
-0.365000
  0
SEQEND
  8
gg1
  0
POLYLINE
  8
gg1
 62
1
 40
0.000000
 41
0.000000
 66
  1
  0
VERTEX
  8
gg1
 10
-0.534000
 20
-0.365000
  0
VERTEX
  8
gg1
 10
-0.514000
 20
-0.425000
  0
SEQEND
  8
gg1
  0
POLYLINE
  8
gg1
 62
1
 40
0.000000
 41
0.000000
 66
  1
  0
VERTEX
  8
gg1
 10
-0.534000
 20
-0.285000
  0
VERTEX
  8
gg1
 10
-0.514000
 20
-0.225000
  0
VERTEX
  8
gg1
 10
-0.494000
 20
-0.285000
  0
SEQEND
  8
gg1
  0
POLYLINE
  8
gg1
 62
1
 40
0.000000
 41
0.000000
 66
  1
  0
VERTEX
  8
gg1
 10
-0.730000
 20
0.225000
  0
VERTEX
  8
gg1
 10
-0.333100
 20
0.225000
  0
SEQEND
  8
gg1
  0
POLYLINE
  8
gg1
 62
1
 40
0.000000
 41
0.000000
 66
  1
  0
VERTEX
  8
gg1
 10
-0.730000
 20
-0.425000
  0
VERTEX
  8
gg1
 10
-0.333000
 20
-0.425000
  0
SEQEND
  8
gg1
  0
POLYLINE
  8
gg1
 62
1
 40
0.000000
 41
0.000000
 66
  1
  0
VERTEX
  8
gg1
 10
-0.720000
 20
-0.100000
  0
VERTEX
  8
gg1
 10
-0.720000
 20
0.225000
  0
SEQEND
  8
gg1
  0
POLYLINE
  8
gg1
 62
1
 40
0.000000
 41
0.000000
 66
  1
  0
VERTEX
  8
gg1
 10
-0.720000
 20
-0.425000
  0
VERTEX
  8
gg1
 10
-0.720000
 20
-0.100000
  0
SEQEND
  8
gg1
  0
POLYLINE
  8
gg1
 62
1
 40
0.000000
 41
0.000000
 66
  1
  0
VERTEX
  8
gg1
 10
-0.740000
 20
0.165000
  0
VERTEX
  8
gg1
 10
-0.720000
 20
0.225000
  0
VERTEX
  8
gg1
 10
-0.700000
 20
0.165000
  0
SEQEND
  8
gg1
  0
POLYLINE
  8
gg1
 62
1
 40
0.000000
 41
0.000000
 66
  1
  0
VERTEX
  8
gg1
 10
-0.720000
 20
-0.425000
  0
VERTEX
  8
gg1
 10
-0.700000
 20
-0.365000
  0
SEQEND
  8
gg1
  0
POLYLINE
  8
gg1
 62
1
 40
0.000000
 41
0.000000
 66
  1
  0
VERTEX
  8
gg1
 10
-0.740000
 20
-0.365000
  0
VERTEX
  8
gg1
 10
-0.720000
 20
-0.425000
  0
SEQEND
  8
gg1
  0
POLYLINE
  8
gg1
 62
1
 40
0.000000
 41
0.000000
 66
  1
  0
VERTEX
  8
gg1
 10
0.393700
 20
-0.690000
  0
VERTEX
  8
gg1
 10
0.393700
 20
-0.105000
  0
SEQEND
  8
gg1
  0
POLYLINE
  8
gg1
 62
1
 40
0.000000
 41
0.000000
 66
  1
  0
VERTEX
  8
gg1
 10
-0.393700
 20
-0.690000
  0
VERTEX
  8
gg1
 10
-0.393700
 20
-0.102500
  0
SEQEND
  8
gg1
  0
POLYLINE
  8
gg1
 62
1
 40
0.000000
 41
0.000000
 66
  1
  0
VERTEX
  8
gg1
 10
0.110000
 20
-0.680000
  0
VERTEX
  8
gg1
 10
0.393700
 20
-0.680000
  0
SEQEND
  8
gg1
  0
POLYLINE
  8
gg1
 62
1
 40
0.000000
 41
0.000000
 66
  1
  0
VERTEX
  8
gg1
 10
-0.393700
 20
-0.680000
  0
VERTEX
  8
gg1
 10
-0.142000
 20
-0.680000
  0
SEQEND
  8
gg1
  0
POLYLINE
  8
gg1
 62
1
 40
0.000000
 41
0.000000
 66
  1
  0
VERTEX
  8
gg1
 10
0.333700
 20
-0.660000
  0
VERTEX
  8
gg1
 10
0.393700
 20
-0.680000
  0
SEQEND
  8
gg1
  0
POLYLINE
  8
gg1
 62
1
 40
0.000000
 41
0.000000
 66
  1
  0
VERTEX
  8
gg1
 10
0.333700
 20
-0.700000
  0
VERTEX
  8
gg1
 10
0.393700
 20
-0.680000
  0
SEQEND
  8
gg1
  0
POLYLINE
  8
gg1
 62
1
 40
0.000000
 41
0.000000
 66
  1
  0
VERTEX
  8
gg1
 10
-0.393700
 20
-0.680000
  0
VERTEX
  8
gg1
 10
-0.333700
 20
-0.700000
  0
SEQEND
  8
gg1
  0
POLYLINE
  8
gg1
 62
1
 40
0.000000
 41
0.000000
 66
  1
  0
VERTEX
  8
gg1
 10
-0.393700
 20
-0.680000
  0
VERTEX
  8
gg1
 10
-0.333700
 20
-0.660000
  0
SEQEND
  8
gg1
  0
POLYLINE
  8
gg1
 62
1
 40
0.000000
 41
0.000000
 66
  1
  0
VERTEX
  8
gg1
 10
0.323000
 20
-0.550000
  0
VERTEX
  8
gg1
 10
0.323000
 20
-0.435000
  0
SEQEND
  8
gg1
  0
POLYLINE
  8
gg1
 62
1
 40
0.000000
 41
0.000000
 66
  1
  0
VERTEX
  8
gg1
 10
-0.323000
 20
-0.550000
  0
VERTEX
  8
gg1
 10
-0.323000
 20
-0.435000
  0
SEQEND
  8
gg1
  0
POLYLINE
  8
gg1
 62
1
 40
0.000000
 41
0.000000
 66
  1
  0
VERTEX
  8
gg1
 10
0.154900
 20
-0.540000
  0
VERTEX
  8
gg1
 10
0.323000
 20
-0.540000
  0
SEQEND
  8
gg1
  0
POLYLINE
  8
gg1
 62
1
 40
0.000000
 41
0.000000
 66
  1
  0
VERTEX
  8
gg1
 10
-0.323000
 20
-0.540000
  0
VERTEX
  8
gg1
 10
-0.186900
 20
-0.540000
  0
SEQEND
  8
gg1
  0
POLYLINE
  8
gg1
 62
1
 40
0.000000
 41
0.000000
 66
  1
  0
VERTEX
  8
gg1
 10
0.263000
 20
-0.520000
  0
VERTEX
  8
gg1
 10
0.323000
 20
-0.540000
  0
SEQEND
  8
gg1
  0
POLYLINE
  8
gg1
 62
1
 40
0.000000
 41
0.000000
 66
  1
  0
VERTEX
  8
gg1
 10
0.263000
 20
-0.560000
  0
VERTEX
  8
gg1
 10
0.323000
 20
-0.540000
  0
SEQEND
  8
gg1
  0
POLYLINE
  8
gg1
 62
1
 40
0.000000
 41
0.000000
 66
  1
  0
VERTEX
  8
gg1
 10
-0.323000
 20
-0.540000
  0
VERTEX
  8
gg1
 10
-0.263000
 20
-0.560000
  0
SEQEND
  8
gg1
  0
POLYLINE
  8
gg1
 62
1
 40
0.000000
 41
0.000000
 66
  1
  0
VERTEX
  8
gg1
 10
-0.323000
 20
-0.540000
  0
VERTEX
  8
gg1
 10
-0.263000
 20
-0.520000
  0
SEQEND
  8
gg1
  0
POLYLINE
  8
gg1
 62
1
 40
0.000000
 41
0.000000
 66
  1
  0
VERTEX
  8
gg1
 10
-0.323100
 20
0.235000
  0
VERTEX
  8
gg1
 10
-0.323100
 20
0.400000
  0
SEQEND
  8
gg1
  0
POLYLINE
  8
gg1
 62
1
 40
0.000000
 41
0.000000
 66
  1
  0
VERTEX
  8
gg1
 10
0.323000
 20
0.235000
  0
VERTEX
  8
gg1
 10
0.323000
 20
0.400000
  0
SEQEND
  8
gg1
  0
POLYLINE
  8
gg1
 62
1
 40
0.000000
 41
0.000000
 66
  1
  0
VERTEX
  8
gg1
 10
-0.323100
 20
0.390000
  0
VERTEX
  8
gg1
 10
-0.187000
 20
0.390000
  0
SEQEND
  8
gg1
  0
POLYLINE
  8
gg1
 62
1
 40
0.000000
 41
0.000000
 66
  1
  0
VERTEX
  8
gg1
 10
0.154900
 20
0.390000
  0
VERTEX
  8
gg1
 10
0.323000
 20
0.390000
  0
SEQEND
  8
gg1
  0
POLYLINE
  8
gg1
 62
1
 40
0.000000
 41
0.000000
 66
  1
  0
VERTEX
  8
gg1
 10
-0.323100
 20
0.390000
  0
VERTEX
  8
gg1
 10
-0.263100
 20
0.370000
  0
SEQEND
  8
gg1
  0
POLYLINE
  8
gg1
 62
1
 40
0.000000
 41
0.000000
 66
  1
  0
VERTEX
  8
gg1
 10
-0.323100
 20
0.390000
  0
VERTEX
  8
gg1
 10
-0.263100
 20
0.410000
  0
SEQEND
  8
gg1
  0
POLYLINE
  8
gg1
 62
1
 40
0.000000
 41
0.000000
 66
  1
  0
VERTEX
  8
gg1
 10
0.263000
 20
0.410000
  0
VERTEX
  8
gg1
 10
0.323000
 20
0.390000
  0
SEQEND
  8
gg1
  0
POLYLINE
  8
gg1
 62
1
 40
0.000000
 41
0.000000
 66
  1
  0
VERTEX
  8
gg1
 10
0.263000
 20
0.370000
  0
VERTEX
  8
gg1
 10
0.323000
 20
0.390000
  0
SEQEND
  8
gg1
  0
POLYLINE
  8
gg1
 62
1
 40
0.000000
 41
0.000000
 66
  1
  0
VERTEX
  8
gg1
 10
-0.844900
 20
0.274900
  0
VERTEX
  8
gg1
 10
-0.844900
 20
0.334800
  0
VERTEX
  8
gg1
 10
-0.814900
 20
0.334800
  0
VERTEX
  8
gg1
 10
-0.804900
 20
0.324800
  0
VERTEX
  8
gg1
 10
-0.804900
 20
0.304900
  0
VERTEX
  8
gg1
 10
-0.814900
 20
0.294900
  0
VERTEX
  8
gg1
 10
-0.844900
 20
0.294900
  0
SEQEND
  8
gg1
  0
POLYLINE
  8
gg1
 62
1
 40
0.000000
 41
0.000000
 66
  1
  0
VERTEX
  8
gg1
 10
-0.824900
 20
0.294900
  0
VERTEX
  8
gg1
 10
-0.804900
 20
0.274900
  0
SEQEND
  8
gg1
  0
POLYLINE
  8
gg1
 62
1
 40
0.000000
 41
0.000000
 66
  1
  0
VERTEX
  8
gg1
 10
-0.724900
 20
0.274900
  0
VERTEX
  8
gg1
 10
-0.704900
 20
0.274900
  0
VERTEX
  8
gg1
 10
-0.714900
 20
0.274900
  0
VERTEX
  8
gg1
 10
-0.714900
 20
0.334800
  0
VERTEX
  8
gg1
 10
-0.724900
 20
0.324800
  0
SEQEND
  8
gg1
  0
POLYLINE
  8
gg1
 62
1
 40
0.000000
 41
0.000000
 66
  1
  0
VERTEX
  8
gg1
 10
-0.674900
 20
0.324800
  0
VERTEX
  8
gg1
 10
-0.665000
 20
0.334800
  0
VERTEX
  8
gg1
 10
-0.645000
 20
0.334800
  0
VERTEX
  8
gg1
 10
-0.635000
 20
0.324800
  0
VERTEX
  8
gg1
 10
-0.635000
 20
0.284900
  0
VERTEX
  8
gg1
 10
-0.645000
 20
0.274900
  0
VERTEX
  8
gg1
 10
-0.665000
 20
0.274900
  0
VERTEX
  8
gg1
 10
-0.674900
 20
0.284900
  0
VERTEX
  8
gg1
 10
-0.674900
 20
0.324800
  0
SEQEND
  8
gg1
  0
POLYLINE
  8
gg1
 62
1
 40
0.000000
 41
0.000000
 66
  1
  0
VERTEX
  8
gg1
 10
-0.615000
 20
0.274900
  0
VERTEX
  8
gg1
 10
-0.615000
 20
0.314800
  0
VERTEX
  8
gg1
 10
-0.605000
 20
0.314800
  0
VERTEX
  8
gg1
 10
-0.595000
 20
0.304900
  0
VERTEX
  8
gg1
 10
-0.595000
 20
0.274900
  0
VERTEX
  8
gg1
 10
-0.595000
 20
0.304900
  0
VERTEX
  8
gg1
 10
-0.585000
 20
0.314800
  0
VERTEX
  8
gg1
 10
-0.575000
 20
0.304900
  0
VERTEX
  8
gg1
 10
-0.575000
 20
0.274900
  0
SEQEND
  8
gg1
  0
POLYLINE
  8
gg1
 62
1
 40
0.000000
 41
0.000000
 66
  1
  0
VERTEX
  8
gg1
 10
-0.555000
 20
0.274900
  0
VERTEX
  8
gg1
 10
-0.555000
 20
0.314800
  0
VERTEX
  8
gg1
 10
-0.545000
 20
0.314800
  0
VERTEX
  8
gg1
 10
-0.535000
 20
0.304900
  0
VERTEX
  8
gg1
 10
-0.535000
 20
0.274900
  0
VERTEX
  8
gg1
 10
-0.535000
 20
0.304900
  0
VERTEX
  8
gg1
 10
-0.525000
 20
0.314800
  0
VERTEX
  8
gg1
 10
-0.515000
 20
0.304900
  0
VERTEX
  8
gg1
 10
-0.515000
 20
0.274900
  0
SEQEND
  8
gg1
  0
POLYLINE
  8
gg1
 62
1
 40
0.000000
 41
0.000000
 66
  1
  0
VERTEX
  8
gg1
 10
-0.565000
 20
-0.360000
  0
VERTEX
  8
gg1
 10
-0.565000
 20
-0.400000
  0
VERTEX
  8
gg1
 10
-0.605000
 20
-0.360000
  0
VERTEX
  8
gg1
 10
-0.615000
 20
-0.360000
  0
VERTEX
  8
gg1
 10
-0.625000
 20
-0.370000
  0
VERTEX
  8
gg1
 10
-0.625000
 20
-0.390000
  0
VERTEX
  8
gg1
 10
-0.615000
 20
-0.400000
  0
SEQEND
  8
gg1
  0
POLYLINE
  8
gg1
 62
1
 40
0.000000
 41
0.000000
 66
  1
  0
VERTEX
  8
gg1
 10
-0.615000
 20
-0.340000
  0
VERTEX
  8
gg1
 10
-0.625000
 20
-0.330000
  0
VERTEX
  8
gg1
 10
-0.625000
 20
-0.310000
  0
VERTEX
  8
gg1
 10
-0.615000
 20
-0.300000
  0
VERTEX
  8
gg1
 10
-0.575000
 20
-0.300000
  0
VERTEX
  8
gg1
 10
-0.565000
 20
-0.310000
  0
VERTEX
  8
gg1
 10
-0.565000
 20
-0.330000
  0
VERTEX
  8
gg1
 10
-0.575000
 20
-0.340000
  0
VERTEX
  8
gg1
 10
-0.615000
 20
-0.340000
  0
SEQEND
  8
gg1
  0
POLYLINE
  8
gg1
 62
1
 40
0.000000
 41
0.000000
 66
  1
  0
VERTEX
  8
gg1
 10
-0.615000
 20
-0.280000
  0
VERTEX
  8
gg1
 10
-0.625000
 20
-0.270000
  0
VERTEX
  8
gg1
 10
-0.625000
 20
-0.250000
  0
VERTEX
  8
gg1
 10
-0.615000
 20
-0.240100
  0
VERTEX
  8
gg1
 10
-0.575000
 20
-0.240100
  0
VERTEX
  8
gg1
 10
-0.565000
 20
-0.250000
  0
VERTEX
  8
gg1
 10
-0.565000
 20
-0.270000
  0
VERTEX
  8
gg1
 10
-0.575000
 20
-0.280000
  0
VERTEX
  8
gg1
 10
-0.615000
 20
-0.280000
  0
SEQEND
  8
gg1
  0
POLYLINE
  8
gg1
 62
1
 40
0.000000
 41
0.000000
 66
  1
  0
VERTEX
  8
gg1
 10
-0.565000
 20
-0.220100
  0
VERTEX
  8
gg1
 10
-0.605000
 20
-0.220100
  0
VERTEX
  8
gg1
 10
-0.605000
 20
-0.210100
  0
VERTEX
  8
gg1
 10
-0.595000
 20
-0.200100
  0
VERTEX
  8
gg1
 10
-0.565000
 20
-0.200100
  0
VERTEX
  8
gg1
 10
-0.595000
 20
-0.200100
  0
VERTEX
  8
gg1
 10
-0.605000
 20
-0.190100
  0
VERTEX
  8
gg1
 10
-0.595000
 20
-0.180100
  0
VERTEX
  8
gg1
 10
-0.565000
 20
-0.180100
  0
SEQEND
  8
gg1
  0
POLYLINE
  8
gg1
 62
1
 40
0.000000
 41
0.000000
 66
  1
  0
VERTEX
  8
gg1
 10
-0.565000
 20
-0.160100
  0
VERTEX
  8
gg1
 10
-0.565000
 20
-0.140100
  0
VERTEX
  8
gg1
 10
-0.565000
 20
-0.150100
  0
VERTEX
  8
gg1
 10
-0.605000
 20
-0.150100
  0
VERTEX
  8
gg1
 10
-0.605000
 20
-0.160100
  0
SEQEND
  8
gg1
  0
POLYLINE
  8
gg1
 62
1
 40
0.000000
 41
0.000000
 66
  1
  0
VERTEX
  8
gg1
 10
-0.565000
 20
-0.110100
  0
VERTEX
  8
gg1
 10
-0.565000
 20
-0.090100
  0
VERTEX
  8
gg1
 10
-0.565000
 20
-0.100100
  0
VERTEX
  8
gg1
 10
-0.625000
 20
-0.100100
  0
VERTEX
  8
gg1
 10
-0.625000
 20
-0.110100
  0
SEQEND
  8
gg1
  0
POLYLINE
  8
gg1
 62
1
 40
0.000000
 41
0.000000
 66
  1
  0
VERTEX
  8
gg1
 10
-0.820000
 20
-0.190000
  0
VERTEX
  8
gg1
 10
-0.810000
 20
-0.210000
  0
VERTEX
  8
gg1
 10
-0.790000
 20
-0.230000
  0
VERTEX
  8
gg1
 10
-0.770000
 20
-0.230000
  0
VERTEX
  8
gg1
 10
-0.760000
 20
-0.220000
  0
VERTEX
  8
gg1
 10
-0.760000
 20
-0.200000
  0
VERTEX
  8
gg1
 10
-0.770000
 20
-0.190000
  0
VERTEX
  8
gg1
 10
-0.780000
 20
-0.190000
  0
VERTEX
  8
gg1
 10
-0.790000
 20
-0.200000
  0
VERTEX
  8
gg1
 10
-0.790000
 20
-0.230000
  0
SEQEND
  8
gg1
  0
POLYLINE
  8
gg1
 62
1
 40
0.000000
 41
0.000000
 66
  1
  0
VERTEX
  8
gg1
 10
-0.820000
 20
-0.130000
  0
VERTEX
  8
gg1
 10
-0.820000
 20
-0.170000
  0
VERTEX
  8
gg1
 10
-0.790000
 20
-0.170000
  0
VERTEX
  8
gg1
 10
-0.800000
 20
-0.150000
  0
VERTEX
  8
gg1
 10
-0.800000
 20
-0.140000
  0
VERTEX
  8
gg1
 10
-0.790000
 20
-0.130000
  0
VERTEX
  8
gg1
 10
-0.770000
 20
-0.130000
  0
VERTEX
  8
gg1
 10
-0.760000
 20
-0.140000
  0
VERTEX
  8
gg1
 10
-0.760000
 20
-0.160000
  0
VERTEX
  8
gg1
 10
-0.770000
 20
-0.170000
  0
SEQEND
  8
gg1
  0
POLYLINE
  8
gg1
 62
1
 40
0.000000
 41
0.000000
 66
  1
  0
VERTEX
  8
gg1
 10
-0.810000
 20
-0.110000
  0
VERTEX
  8
gg1
 10
-0.820000
 20
-0.100000
  0
VERTEX
  8
gg1
 10
-0.820000
 20
-0.080000
  0
VERTEX
  8
gg1
 10
-0.810000
 20
-0.070100
  0
VERTEX
  8
gg1
 10
-0.770000
 20
-0.070100
  0
VERTEX
  8
gg1
 10
-0.760000
 20
-0.080000
  0
VERTEX
  8
gg1
 10
-0.760000
 20
-0.100000
  0
VERTEX
  8
gg1
 10
-0.770000
 20
-0.110000
  0
VERTEX
  8
gg1
 10
-0.810000
 20
-0.110000
  0
SEQEND
  8
gg1
  0
POLYLINE
  8
gg1
 62
1
 40
0.000000
 41
0.000000
 66
  1
  0
VERTEX
  8
gg1
 10
-0.760000
 20
-0.050100
  0
VERTEX
  8
gg1
 10
-0.800000
 20
-0.050100
  0
VERTEX
  8
gg1
 10
-0.800000
 20
-0.040100
  0
VERTEX
  8
gg1
 10
-0.790000
 20
-0.030100
  0
VERTEX
  8
gg1
 10
-0.760000
 20
-0.030100
  0
VERTEX
  8
gg1
 10
-0.790000
 20
-0.030100
  0
VERTEX
  8
gg1
 10
-0.800000
 20
-0.020100
  0
VERTEX
  8
gg1
 10
-0.790000
 20
-0.010100
  0
VERTEX
  8
gg1
 10
-0.760000
 20
-0.010100
  0
SEQEND
  8
gg1
  0
POLYLINE
  8
gg1
 62
1
 40
0.000000
 41
0.000000
 66
  1
  0
VERTEX
  8
gg1
 10
-0.760000
 20
0.009900
  0
VERTEX
  8
gg1
 10
-0.760000
 20
0.029900
  0
VERTEX
  8
gg1
 10
-0.760000
 20
0.019900
  0
VERTEX
  8
gg1
 10
-0.800000
 20
0.019900
  0
VERTEX
  8
gg1
 10
-0.800000
 20
0.009900
  0
SEQEND
  8
gg1
  0
POLYLINE
  8
gg1
 62
1
 40
0.000000
 41
0.000000
 66
  1
  0
VERTEX
  8
gg1
 10
-0.760000
 20
0.059900
  0
VERTEX
  8
gg1
 10
-0.760000
 20
0.079900
  0
VERTEX
  8
gg1
 10
-0.760000
 20
0.069900
  0
VERTEX
  8
gg1
 10
-0.820000
 20
0.069900
  0
VERTEX
  8
gg1
 10
-0.820000
 20
0.059900
  0
SEQEND
  8
gg1
  0
POLYLINE
  8
gg1
 62
1
 40
0.000000
 41
0.000000
 66
  1
  0
VERTEX
  8
gg1
 10
-0.086000
 20
-0.716000
  0
VERTEX
  8
gg1
 10
-0.126000
 20
-0.716000
  0
VERTEX
  8
gg1
 10
-0.086000
 20
-0.676000
  0
VERTEX
  8
gg1
 10
-0.086000
 20
-0.666000
  0
VERTEX
  8
gg1
 10
-0.096000
 20
-0.656000
  0
VERTEX
  8
gg1
 10
-0.116000
 20
-0.656000
  0
VERTEX
  8
gg1
 10
-0.126000
 20
-0.666000
  0
SEQEND
  8
gg1
  0
POLYLINE
  8
gg1
 62
1
 40
0.000000
 41
0.000000
 66
  1
  0
VERTEX
  8
gg1
 10
-0.066000
 20
-0.666000
  0
VERTEX
  8
gg1
 10
-0.056000
 20
-0.656000
  0
VERTEX
  8
gg1
 10
-0.036000
 20
-0.656000
  0
VERTEX
  8
gg1
 10
-0.026000
 20
-0.666000
  0
VERTEX
  8
gg1
 10
-0.026000
 20
-0.706000
  0
VERTEX
  8
gg1
 10
-0.036000
 20
-0.716000
  0
VERTEX
  8
gg1
 10
-0.056000
 20
-0.716000
  0
VERTEX
  8
gg1
 10
-0.066000
 20
-0.706000
  0
VERTEX
  8
gg1
 10
-0.066000
 20
-0.666000
  0
SEQEND
  8
gg1
  0
POLYLINE
  8
gg1
 62
1
 40
0.000000
 41
0.000000
 66
  1
  0
VERTEX
  8
gg1
 10
-0.006000
 20
-0.716000
  0
VERTEX
  8
gg1
 10
-0.006000
 20
-0.676000
  0
VERTEX
  8
gg1
 10
0.004000
 20
-0.676000
  0
VERTEX
  8
gg1
 10
0.014000
 20
-0.686000
  0
VERTEX
  8
gg1
 10
0.014000
 20
-0.716000
  0
VERTEX
  8
gg1
 10
0.014000
 20
-0.686000
  0
VERTEX
  8
gg1
 10
0.024000
 20
-0.676000
  0
VERTEX
  8
gg1
 10
0.034000
 20
-0.686000
  0
VERTEX
  8
gg1
 10
0.034000
 20
-0.716000
  0
SEQEND
  8
gg1
  0
POLYLINE
  8
gg1
 62
1
 40
0.000000
 41
0.000000
 66
  1
  0
VERTEX
  8
gg1
 10
0.054000
 20
-0.716000
  0
VERTEX
  8
gg1
 10
0.054000
 20
-0.676000
  0
VERTEX
  8
gg1
 10
0.064000
 20
-0.676000
  0
VERTEX
  8
gg1
 10
0.074000
 20
-0.686000
  0
VERTEX
  8
gg1
 10
0.074000
 20
-0.716000
  0
VERTEX
  8
gg1
 10
0.074000
 20
-0.686000
  0
VERTEX
  8
gg1
 10
0.084000
 20
-0.676000
  0
VERTEX
  8
gg1
 10
0.094000
 20
-0.686000
  0
VERTEX
  8
gg1
 10
0.094000
 20
-0.716000
  0
SEQEND
  8
gg1
  0
POLYLINE
  8
gg1
 62
1
 40
0.000000
 41
0.000000
 66
  1
  0
VERTEX
  8
gg1
 10
-0.131000
 20
-0.516000
  0
VERTEX
  8
gg1
 10
-0.151000
 20
-0.526000
  0
VERTEX
  8
gg1
 10
-0.170900
 20
-0.546000
  0
VERTEX
  8
gg1
 10
-0.170900
 20
-0.566000
  0
VERTEX
  8
gg1
 10
-0.161000
 20
-0.576000
  0
VERTEX
  8
gg1
 10
-0.141000
 20
-0.576000
  0
VERTEX
  8
gg1
 10
-0.131000
 20
-0.566000
  0
VERTEX
  8
gg1
 10
-0.131000
 20
-0.556000
  0
VERTEX
  8
gg1
 10
-0.141000
 20
-0.546000
  0
VERTEX
  8
gg1
 10
-0.170900
 20
-0.546000
  0
SEQEND
  8
gg1
  0
POLYLINE
  8
gg1
 62
1
 40
0.000000
 41
0.000000
 66
  1
  0
VERTEX
  8
gg1
 10
-0.081000
 20
-0.576000
  0
VERTEX
  8
gg1
 10
-0.081000
 20
-0.516000
  0
VERTEX
  8
gg1
 10
-0.111000
 20
-0.546000
  0
VERTEX
  8
gg1
 10
-0.071000
 20
-0.546000
  0
SEQEND
  8
gg1
  0
POLYLINE
  8
gg1
 62
1
 40
0.000000
 41
0.000000
 66
  1
  0
VERTEX
  8
gg1
 10
-0.011000
 20
-0.516000
  0
VERTEX
  8
gg1
 10
-0.031000
 20
-0.526000
  0
VERTEX
  8
gg1
 10
-0.051000
 20
-0.546000
  0
VERTEX
  8
gg1
 10
-0.051000
 20
-0.566000
  0
VERTEX
  8
gg1
 10
-0.041000
 20
-0.576000
  0
VERTEX
  8
gg1
 10
-0.021000
 20
-0.576000
  0
VERTEX
  8
gg1
 10
-0.011000
 20
-0.566000
  0
VERTEX
  8
gg1
 10
-0.011000
 20
-0.556000
  0
VERTEX
  8
gg1
 10
-0.021000
 20
-0.546000
  0
VERTEX
  8
gg1
 10
-0.051000
 20
-0.546000
  0
SEQEND
  8
gg1
  0
POLYLINE
  8
gg1
 62
1
 40
0.000000
 41
0.000000
 66
  1
  0
VERTEX
  8
gg1
 10
0.009000
 20
-0.576000
  0
VERTEX
  8
gg1
 10
0.009000
 20
-0.536000
  0
VERTEX
  8
gg1
 10
0.019000
 20
-0.536000
  0
VERTEX
  8
gg1
 10
0.029000
 20
-0.546000
  0
VERTEX
  8
gg1
 10
0.029000
 20
-0.576000
  0
VERTEX
  8
gg1
 10
0.029000
 20
-0.546000
  0
VERTEX
  8
gg1
 10
0.039000
 20
-0.536000
  0
VERTEX
  8
gg1
 10
0.049000
 20
-0.546000
  0
VERTEX
  8
gg1
 10
0.049000
 20
-0.576000
  0
SEQEND
  8
gg1
  0
POLYLINE
  8
gg1
 62
1
 40
0.000000
 41
0.000000
 66
  1
  0
VERTEX
  8
gg1
 10
0.069000
 20
-0.576000
  0
VERTEX
  8
gg1
 10
0.089000
 20
-0.576000
  0
VERTEX
  8
gg1
 10
0.079000
 20
-0.576000
  0
VERTEX
  8
gg1
 10
0.079000
 20
-0.536000
  0
VERTEX
  8
gg1
 10
0.069000
 20
-0.536000
  0
SEQEND
  8
gg1
  0
POLYLINE
  8
gg1
 62
1
 40
0.000000
 41
0.000000
 66
  1
  0
VERTEX
  8
gg1
 10
0.119000
 20
-0.576000
  0
VERTEX
  8
gg1
 10
0.139000
 20
-0.576000
  0
VERTEX
  8
gg1
 10
0.129000
 20
-0.576000
  0
VERTEX
  8
gg1
 10
0.129000
 20
-0.516000
  0
VERTEX
  8
gg1
 10
0.119000
 20
-0.516000
  0
SEQEND
  8
gg1
  0
POLYLINE
  8
gg1
 62
1
 40
0.000000
 41
0.000000
 66
  1
  0
VERTEX
  8
gg1
 10
-0.131000
 20
0.414000
  0
VERTEX
  8
gg1
 10
-0.151000
 20
0.404000
  0
VERTEX
  8
gg1
 10
-0.171000
 20
0.384000
  0
VERTEX
  8
gg1
 10
-0.171000
 20
0.364000
  0
VERTEX
  8
gg1
 10
-0.161000
 20
0.354000
  0
VERTEX
  8
gg1
 10
-0.141000
 20
0.354000
  0
VERTEX
  8
gg1
 10
-0.131000
 20
0.364000
  0
VERTEX
  8
gg1
 10
-0.131000
 20
0.374000
  0
VERTEX
  8
gg1
 10
-0.141000
 20
0.384000
  0
VERTEX
  8
gg1
 10
-0.171000
 20
0.384000
  0
SEQEND
  8
gg1
  0
POLYLINE
  8
gg1
 62
1
 40
0.000000
 41
0.000000
 66
  1
  0
VERTEX
  8
gg1
 10
-0.081000
 20
0.354000
  0
VERTEX
  8
gg1
 10
-0.081000
 20
0.414000
  0
VERTEX
  8
gg1
 10
-0.111000
 20
0.384000
  0
VERTEX
  8
gg1
 10
-0.071000
 20
0.384000
  0
SEQEND
  8
gg1
  0
POLYLINE
  8
gg1
 62
1
 40
0.000000
 41
0.000000
 66
  1
  0
VERTEX
  8
gg1
 10
-0.011000
 20
0.414000
  0
VERTEX
  8
gg1
 10
-0.031000
 20
0.404000
  0
VERTEX
  8
gg1
 10
-0.051000
 20
0.384000
  0
VERTEX
  8
gg1
 10
-0.051000
 20
0.364000
  0
VERTEX
  8
gg1
 10
-0.041000
 20
0.354000
  0
VERTEX
  8
gg1
 10
-0.021000
 20
0.354000
  0
VERTEX
  8
gg1
 10
-0.011000
 20
0.364000
  0
VERTEX
  8
gg1
 10
-0.011000
 20
0.374000
  0
VERTEX
  8
gg1
 10
-0.021000
 20
0.384000
  0
VERTEX
  8
gg1
 10
-0.051000
 20
0.384000
  0
SEQEND
  8
gg1
  0
POLYLINE
  8
gg1
 62
1
 40
0.000000
 41
0.000000
 66
  1
  0
VERTEX
  8
gg1
 10
0.009000
 20
0.354000
  0
VERTEX
  8
gg1
 10
0.009000
 20
0.394000
  0
VERTEX
  8
gg1
 10
0.019000
 20
0.394000
  0
VERTEX
  8
gg1
 10
0.029000
 20
0.384000
  0
VERTEX
  8
gg1
 10
0.029000
 20
0.354000
  0
VERTEX
  8
gg1
 10
0.029000
 20
0.384000
  0
VERTEX
  8
gg1
 10
0.039000
 20
0.394000
  0
VERTEX
  8
gg1
 10
0.049000
 20
0.384000
  0
VERTEX
  8
gg1
 10
0.049000
 20
0.354000
  0
SEQEND
  8
gg1
  0
POLYLINE
  8
gg1
 62
1
 40
0.000000
 41
0.000000
 66
  1
  0
VERTEX
  8
gg1
 10
0.069000
 20
0.354000
  0
VERTEX
  8
gg1
 10
0.089000
 20
0.354000
  0
VERTEX
  8
gg1
 10
0.079000
 20
0.354000
  0
VERTEX
  8
gg1
 10
0.079000
 20
0.394000
  0
VERTEX
  8
gg1
 10
0.069000
 20
0.394000
  0
SEQEND
  8
gg1
  0
POLYLINE
  8
gg1
 62
1
 40
0.000000
 41
0.000000
 66
  1
  0
VERTEX
  8
gg1
 10
0.118900
 20
0.354000
  0
VERTEX
  8
gg1
 10
0.138900
 20
0.354000
  0
VERTEX
  8
gg1
 10
0.128900
 20
0.354000
  0
VERTEX
  8
gg1
 10
0.128900
 20
0.414000
  0
VERTEX
  8
gg1
 10
0.118900
 20
0.414000
  0
SEQEND
  8
gg1
  0
POLYLINE
  8
gg1
 62
1
 40
0.000000
 41
0.000000
 66
  1
  0
VERTEX
  8
gg1
 10
0.230000
 20
-0.375000
  0
VERTEX
  8
gg1
 10
0.270000
 20
-0.375000
  0
SEQEND
  8
gg1
  0
POLYLINE
  8
gg1
 62
1
 40
0.000000
 41
0.000000
 66
  1
  0
VERTEX
  8
gg1
 10
0.250000
 20
-0.395000
  0
VERTEX
  8
gg1
 10
0.250000
 20
-0.355000
  0
SEQEND
  8
gg1
  0
POLYLINE
  8
gg1
 62
1
 40
0.000000
 41
0.000000
 66
  1
  0
VERTEX
  8
gg1
 10
-0.270000
 20
-0.375000
  0
VERTEX
  8
gg1
 10
-0.230000
 20
-0.375000
  0
SEQEND
  8
gg1
  0
POLYLINE
  8
gg1
 62
1
 40
0.000000
 41
0.000000
 66
  1
  0
VERTEX
  8
gg1
 10
-0.250000
 20
-0.395000
  0
VERTEX
  8
gg1
 10
-0.250000
 20
-0.355000
  0
SEQEND
  8
gg1
  0
POLYLINE
  8
gg1
 62
1
 40
0.000000
 41
0.000000
 66
  1
  0
VERTEX
  8
gg1
 10
-0.170000
 20
-0.375000
  0
VERTEX
  8
gg1
 10
-0.130000
 20
-0.375000
  0
SEQEND
  8
gg1
  0
POLYLINE
  8
gg1
 62
1
 40
0.000000
 41
0.000000
 66
  1
  0
VERTEX
  8
gg1
 10
-0.150000
 20
-0.395000
  0
VERTEX
  8
gg1
 10
-0.150000
 20
-0.355000
  0
SEQEND
  8
gg1
  0
POLYLINE
  8
gg1
 62
1
 40
0.000000
 41
0.000000
 66
  1
  0
VERTEX
  8
gg1
 10
-0.070000
 20
-0.375000
  0
VERTEX
  8
gg1
 10
-0.030000
 20
-0.375000
  0
SEQEND
  8
gg1
  0
POLYLINE
  8
gg1
 62
1
 40
0.000000
 41
0.000000
 66
  1
  0
VERTEX
  8
gg1
 10
-0.050000
 20
-0.395000
  0
VERTEX
  8
gg1
 10
-0.050000
 20
-0.355000
  0
SEQEND
  8
gg1
  0
POLYLINE
  8
gg1
 62
1
 40
0.000000
 41
0.000000
 66
  1
  0
VERTEX
  8
gg1
 10
0.030000
 20
-0.375000
  0
VERTEX
  8
gg1
 10
0.070000
 20
-0.375000
  0
SEQEND
  8
gg1
  0
POLYLINE
  8
gg1
 62
1
 40
0.000000
 41
0.000000
 66
  1
  0
VERTEX
  8
gg1
 10
0.050000
 20
-0.395000
  0
VERTEX
  8
gg1
 10
0.050000
 20
-0.355000
  0
SEQEND
  8
gg1
  0
POLYLINE
  8
gg1
 62
1
 40
0.000000
 41
0.000000
 66
  1
  0
VERTEX
  8
gg1
 10
0.130000
 20
-0.375000
  0
VERTEX
  8
gg1
 10
0.170000
 20
-0.375000
  0
SEQEND
  8
gg1
  0
POLYLINE
  8
gg1
 62
1
 40
0.000000
 41
0.000000
 66
  1
  0
VERTEX
  8
gg1
 10
0.150000
 20
-0.395000
  0
VERTEX
  8
gg1
 10
0.150000
 20
-0.355000
  0
SEQEND
  8
gg1
  0
POLYLINE
  8
gg1
 62
1
 40
0.000000
 41
0.000000
 66
  1
  0
VERTEX
  8
gg1
 10
-0.318900
 20
-0.066500
  0
VERTEX
  8
gg1
 10
-0.279500
 20
-0.066500
  0
SEQEND
  8
gg1
  0
POLYLINE
  8
gg1
 62
1
 40
0.000000
 41
0.000000
 66
  1
  0
VERTEX
  8
gg1
 10
-0.299200
 20
-0.086200
  0
VERTEX
  8
gg1
 10
-0.299200
 20
-0.046800
  0
SEQEND
  8
gg1
  0
POLYLINE
  8
gg1
 62
1
 40
0.000000
 41
0.000000
 66
  1
  0
VERTEX
  8
gg1
 10
0.279500
 20
0.066500
  0
VERTEX
  8
gg1
 10
0.318900
 20
0.066500
  0
SEQEND
  8
gg1
  0
POLYLINE
  8
gg1
 62
1
 40
0.000000
 41
0.000000
 66
  1
  0
VERTEX
  8
gg1
 10
0.299200
 20
0.046800
  0
VERTEX
  8
gg1
 10
0.299200
 20
0.086200
  0
SEQEND
  8
gg1
  0
POLYLINE
  8
gg1
 62
1
 40
0.000000
 41
0.000000
 66
  1
  0
VERTEX
  8
gg1
 10
0.249000
 20
0.010000
  0
VERTEX
  8
gg1
 10
0.288400
 20
0.010000
  0
SEQEND
  8
gg1
  0
POLYLINE
  8
gg1
 62
1
 40
0.000000
 41
0.000000
 66
  1
  0
VERTEX
  8
gg1
 10
0.268700
 20
-0.009700
  0
VERTEX
  8
gg1
 10
0.268700
 20
0.029700
  0
SEQEND
  8
gg1
  0
POLYLINE
  8
gg1
 62
1
 40
0.000000
 41
0.000000
 66
  1
  0
VERTEX
  8
gg1
 10
-0.102500
 20
0.000000
  0
VERTEX
  8
gg1
 10
0.102500
 20
0.000000
  0
SEQEND
  8
gg1
  0
POLYLINE
  8
gg1
 62
1
 40
0.000000
 41
0.000000
 66
  1
  0
VERTEX
  8
gg1
 10
0.000000
 20
-0.102500
  0
VERTEX
  8
gg1
 10
0.000000
 20
0.102500
  0
SEQEND
  8
gg1
  0
POLYLINE
  8
gg1
 62
1
 40
0.000000
 41
0.000000
 66
  1
  0
VERTEX
  8
gg1
 10
-0.288400
 20
-0.010000
  0
VERTEX
  8
gg1
 10
-0.249000
 20
-0.010000
  0
SEQEND
  8
gg1
  0
POLYLINE
  8
gg1
 62
1
 40
0.000000
 41
0.000000
 66
  1
  0
VERTEX
  8
gg1
 10
-0.268700
 20
-0.029700
  0
VERTEX
  8
gg1
 10
-0.268700
 20
0.009700
  0
SEQEND
  8
gg1
  0
POLYLINE
  8
gg1
 62
1
 40
0.000000
 41
0.000000
 66
  1
  0
VERTEX
  8
gg1
 10
0.132500
 20
0.170000
  0
VERTEX
  8
gg1
 10
0.147500
 20
0.170000
  0
SEQEND
  8
gg1
  0
POLYLINE
  8
gg1
 62
1
 40
0.000000
 41
0.000000
 66
  1
  0
VERTEX
  8
gg1
 10
0.140000
 20
0.162500
  0
VERTEX
  8
gg1
 10
0.140000
 20
0.177500
  0
SEQEND
  8
gg1
  0
POLYLINE
  8
gg1
 62
1
 40
0.000000
 41
0.000000
 66
  1
  0
VERTEX
  8
gg1
 10
0.177500
 20
-0.035000
  0
VERTEX
  8
gg1
 10
0.192500
 20
-0.035000
  0
SEQEND
  8
gg1
  0
POLYLINE
  8
gg1
 62
1
 40
0.000000
 41
0.000000
 66
  1
  0
VERTEX
  8
gg1
 10
0.185000
 20
-0.042500
  0
VERTEX
  8
gg1
 10
0.185000
 20
-0.027500
  0
SEQEND
  8
gg1
  0
POLYLINE
  8
gg1
 62
1
 40
0.000000
 41
0.000000
 66
  1
  0
VERTEX
  8
gg1
 10
0.092500
 20
-0.270000
  0
VERTEX
  8
gg1
 10
0.107500
 20
-0.270000
  0
SEQEND
  8
gg1
  0
POLYLINE
  8
gg1
 62
1
 40
0.000000
 41
0.000000
 66
  1
  0
VERTEX
  8
gg1
 10
0.100000
 20
-0.277500
  0
VERTEX
  8
gg1
 10
0.100000
 20
-0.262500
  0
SEQEND
  8
gg1
  0
POLYLINE
  8
gg1
 62
1
 40
0.000000
 41
0.000000
 66
  1
  0
VERTEX
  8
gg1
 10
-0.157500
 20
-0.195000
  0
VERTEX
  8
gg1
 10
-0.142500
 20
-0.195000
  0
SEQEND
  8
gg1
  0
POLYLINE
  8
gg1
 62
1
 40
0.000000
 41
0.000000
 66
  1
  0
VERTEX
  8
gg1
 10
-0.150000
 20
-0.202500
  0
VERTEX
  8
gg1
 10
-0.150000
 20
-0.187500
  0
SEQEND
  8
gg1
  0
POLYLINE
  8
gg1
 62
1
 40
0.000000
 41
0.000000
 66
  1
  0
VERTEX
  8
gg1
 10
-0.292500
 20
-0.183600
  0
VERTEX
  8
gg1
 10
-0.277500
 20
-0.183600
  0
SEQEND
  8
gg1
  0
POLYLINE
  8
gg1
 62
1
 40
0.000000
 41
0.000000
 66
  1
  0
VERTEX
  8
gg1
 10
-0.285000
 20
-0.191100
  0
VERTEX
  8
gg1
 10
-0.285000
 20
-0.176100
  0
SEQEND
  8
gg1
  0
ENDSEC
  0
EOF
