  0
SECTION
  2
HEADER
  9
$EXTMIN
 10
-0.332000
 20
-0.264000
  9
$EXTMAX
 10
0.805000
 20
0.905000
  9
$LIMMIN
 10
-0.332000
 20
-0.264000
  9
$LIMMAX
 10
0.805000
 20
0.905000
  9
$FILLMODE
 70
  1
  0
ENDSEC
  0
SECTION
  2
TABLES
  0
TABLE
  2
LTYPE
 70
  1
  0
LTYPE
  2
CONTINUOUS
 70
 64
  3
Solid line
 72
 65
 73
  0
 40
0.0
  0
ENDTAB
  0
TABLE
  2
LAYER
 70
 1
  0
LAYER
  2
0
 70
  0
 62
7
  6
CONTINUOUS
  0
LAYER
  2
gg1
 70
  0
 62
1
  6
CONTINUOUS
  0
ENDTAB
  0
TABLE
  2
STYLE
 70
  1
  0
STYLE
  2
STANDARD
 70
  0
 40
0.0
 41
1.0
 50
0.0
 71
  0
 42
0.2
  3
txt
  4

  0
ENDTAB
  0
ENDSEC
  0
SECTION
  2
BLOCKS
  0
BLOCK
  8
0
  2
D10
 70
64
 10
0.0
 20
0.0
  3
D10
  0
CIRCLE
  8
0
 10
0.000000
 20
0.000000
 40
0.005000
 0
ENDBLK
  8
0
  0
BLOCK
  8
0
  2
D11
 70
64
 10
0.0
 20
0.0
  3
D11
  0
CIRCLE
  8
0
 10
0.000000
 20
0.000000
 40
0.002500
 0
ENDBLK
  8
0
  0
BLOCK
  8
0
  2
D12
 70
64
 10
0.0
 20
0.0
  3
D12
  0
CIRCLE
  8
0
 10
0.000000
 20
0.000000
 40
0.003000
 0
ENDBLK
  8
0
  0
BLOCK
  8
0
  2
D13
 70
64
 10
0.0
 20
0.0
  3
D13
  0
CIRCLE
  8
0
 10
0.000000
 20
0.000000
 40
0.001000
 0
ENDBLK
  8
0
  0
ENDSEC
  0
SECTION
  2
ENTITIES
  0
POLYLINE
  8
gg1
 62
1
 40
0.000000
 41
0.000000
 66
  1
  0
VERTEX
  8
gg1
 10
-0.315000
 20
0.000000
  0
VERTEX
  8
gg1
 10
-0.010000
 20
0.000000
  0
SEQEND
  8
gg1
  0
POLYLINE
  8
gg1
 62
1
 40
0.000000
 41
0.000000
 66
  1
  0
VERTEX
  8
gg1
 10
-0.315000
 20
0.900000
  0
VERTEX
  8
gg1
 10
-0.010000
 20
0.900000
  0
SEQEND
  8
gg1
  0
POLYLINE
  8
gg1
 62
1
 40
0.000000
 41
0.000000
 66
  1
  0
VERTEX
  8
gg1
 10
-0.305000
 20
0.000000
  0
VERTEX
  8
gg1
 10
-0.305000
 20
0.263000
  0
SEQEND
  8
gg1
  0
POLYLINE
  8
gg1
 62
1
 40
0.000000
 41
0.000000
 66
  1
  0
VERTEX
  8
gg1
 10
-0.305000
 20
0.605000
  0
VERTEX
  8
gg1
 10
-0.305000
 20
0.900000
  0
SEQEND
  8
gg1
  0
POLYLINE
  8
gg1
 62
1
 40
0.000000
 41
0.000000
 66
  1
  0
VERTEX
  8
gg1
 10
-0.305000
 20
0.000000
  0
VERTEX
  8
gg1
 10
-0.285000
 20
0.060000
  0
SEQEND
  8
gg1
  0
POLYLINE
  8
gg1
 62
1
 40
0.000000
 41
0.000000
 66
  1
  0
VERTEX
  8
gg1
 10
-0.325000
 20
0.060000
  0
VERTEX
  8
gg1
 10
-0.305000
 20
0.000000
  0
SEQEND
  8
gg1
  0
POLYLINE
  8
gg1
 62
1
 40
0.000000
 41
0.000000
 66
  1
  0
VERTEX
  8
gg1
 10
-0.325000
 20
0.840000
  0
VERTEX
  8
gg1
 10
-0.305000
 20
0.900000
  0
VERTEX
  8
gg1
 10
-0.285000
 20
0.840000
  0
SEQEND
  8
gg1
  0
POLYLINE
  8
gg1
 62
1
 40
0.000000
 41
0.000000
 66
  1
  0
VERTEX
  8
gg1
 10
0.800000
 20
-0.235000
  0
VERTEX
  8
gg1
 10
0.800000
 20
-0.010000
  0
SEQEND
  8
gg1
  0
POLYLINE
  8
gg1
 62
1
 40
0.000000
 41
0.000000
 66
  1
  0
VERTEX
  8
gg1
 10
0.000000
 20
-0.235000
  0
VERTEX
  8
gg1
 10
0.000000
 20
-0.010000
  0
SEQEND
  8
gg1
  0
POLYLINE
  8
gg1
 62
1
 40
0.000000
 41
0.000000
 66
  1
  0
VERTEX
  8
gg1
 10
0.554900
 20
-0.225000
  0
VERTEX
  8
gg1
 10
0.800000
 20
-0.225000
  0
SEQEND
  8
gg1
  0
POLYLINE
  8
gg1
 62
1
 40
0.000000
 41
0.000000
 66
  1
  0
VERTEX
  8
gg1
 10
0.000000
 20
-0.225000
  0
VERTEX
  8
gg1
 10
0.213000
 20
-0.225000
  0
SEQEND
  8
gg1
  0
POLYLINE
  8
gg1
 62
1
 40
0.000000
 41
0.000000
 66
  1
  0
VERTEX
  8
gg1
 10
0.740000
 20
-0.205000
  0
VERTEX
  8
gg1
 10
0.800000
 20
-0.225000
  0
SEQEND
  8
gg1
  0
POLYLINE
  8
gg1
 62
1
 40
0.000000
 41
0.000000
 66
  1
  0
VERTEX
  8
gg1
 10
0.740000
 20
-0.245000
  0
VERTEX
  8
gg1
 10
0.800000
 20
-0.225000
  0
SEQEND
  8
gg1
  0
POLYLINE
  8
gg1
 62
1
 40
0.000000
 41
0.000000
 66
  1
  0
VERTEX
  8
gg1
 10
0.000000
 20
-0.225000
  0
VERTEX
  8
gg1
 10
0.060000
 20
-0.245000
  0
SEQEND
  8
gg1
  0
POLYLINE
  8
gg1
 62
1
 40
0.000000
 41
0.000000
 66
  1
  0
VERTEX
  8
gg1
 10
0.000000
 20
-0.225000
  0
VERTEX
  8
gg1
 10
0.060000
 20
-0.205000
  0
SEQEND
  8
gg1
  0
POLYLINE
  8
gg1
 62
1
 40
0.000000
 41
0.000000
 66
  1
  0
VERTEX
  8
gg1
 10
0.000000
 20
0.000000
  0
VERTEX
  8
gg1
 10
0.800000
 20
0.000000
  0
VERTEX
  8
gg1
 10
0.800000
 20
0.900000
  0
SEQEND
  8
gg1
  0
POLYLINE
  8
gg1
 62
1
 40
0.000000
 41
0.000000
 66
  1
  0
VERTEX
  8
gg1
 10
0.000000
 20
0.900000
  0
VERTEX
  8
gg1
 10
0.800000
 20
0.900000
  0
SEQEND
  8
gg1
  0
POLYLINE
  8
gg1
 62
1
 40
0.000000
 41
0.000000
 66
  1
  0
VERTEX
  8
gg1
 10
0.000000
 20
0.000000
  0
VERTEX
  8
gg1
 10
0.000000
 20
0.900000
  0
SEQEND
  8
gg1
  0
POLYLINE
  8
gg1
 62
1
 40
0.000000
 41
0.000000
 66
  1
  0
VERTEX
  8
gg1
 10
-0.279000
 20
0.279000
  0
VERTEX
  8
gg1
 10
-0.269000
 20
0.289000
  0
VERTEX
  8
gg1
 10
-0.269000
 20
0.309000
  0
VERTEX
  8
gg1
 10
-0.279000
 20
0.319000
  0
VERTEX
  8
gg1
 10
-0.319000
 20
0.319000
  0
VERTEX
  8
gg1
 10
-0.329000
 20
0.309000
  0
VERTEX
  8
gg1
 10
-0.329000
 20
0.289000
  0
VERTEX
  8
gg1
 10
-0.319000
 20
0.279000
  0
VERTEX
  8
gg1
 10
-0.309000
 20
0.279000
  0
VERTEX
  8
gg1
 10
-0.299000
 20
0.289000
  0
VERTEX
  8
gg1
 10
-0.299000
 20
0.319000
  0
SEQEND
  8
gg1
  0
POLYLINE
  8
gg1
 62
1
 40
0.000000
 41
0.000000
 66
  1
  0
VERTEX
  8
gg1
 10
-0.319000
 20
0.339000
  0
VERTEX
  8
gg1
 10
-0.329000
 20
0.349000
  0
VERTEX
  8
gg1
 10
-0.329000
 20
0.369000
  0
VERTEX
  8
gg1
 10
-0.319000
 20
0.379000
  0
VERTEX
  8
gg1
 10
-0.279000
 20
0.379000
  0
VERTEX
  8
gg1
 10
-0.269000
 20
0.369000
  0
VERTEX
  8
gg1
 10
-0.269000
 20
0.349000
  0
VERTEX
  8
gg1
 10
-0.279000
 20
0.339000
  0
VERTEX
  8
gg1
 10
-0.319000
 20
0.339000
  0
SEQEND
  8
gg1
  0
POLYLINE
  8
gg1
 62
1
 40
0.000000
 41
0.000000
 66
  1
  0
VERTEX
  8
gg1
 10
-0.319000
 20
0.399000
  0
VERTEX
  8
gg1
 10
-0.329000
 20
0.409000
  0
VERTEX
  8
gg1
 10
-0.329000
 20
0.429000
  0
VERTEX
  8
gg1
 10
-0.319000
 20
0.439000
  0
VERTEX
  8
gg1
 10
-0.279000
 20
0.439000
  0
VERTEX
  8
gg1
 10
-0.269000
 20
0.429000
  0
VERTEX
  8
gg1
 10
-0.269000
 20
0.409000
  0
VERTEX
  8
gg1
 10
-0.279000
 20
0.399000
  0
VERTEX
  8
gg1
 10
-0.319000
 20
0.399000
  0
SEQEND
  8
gg1
  0
POLYLINE
  8
gg1
 62
1
 40
0.000000
 41
0.000000
 66
  1
  0
VERTEX
  8
gg1
 10
-0.269000
 20
0.459000
  0
VERTEX
  8
gg1
 10
-0.309000
 20
0.459000
  0
VERTEX
  8
gg1
 10
-0.309000
 20
0.469000
  0
VERTEX
  8
gg1
 10
-0.299000
 20
0.479000
  0
VERTEX
  8
gg1
 10
-0.269000
 20
0.479000
  0
VERTEX
  8
gg1
 10
-0.299000
 20
0.479000
  0
VERTEX
  8
gg1
 10
-0.309000
 20
0.489000
  0
VERTEX
  8
gg1
 10
-0.299000
 20
0.499000
  0
VERTEX
  8
gg1
 10
-0.269000
 20
0.499000
  0
SEQEND
  8
gg1
  0
POLYLINE
  8
gg1
 62
1
 40
0.000000
 41
0.000000
 66
  1
  0
VERTEX
  8
gg1
 10
-0.269000
 20
0.519000
  0
VERTEX
  8
gg1
 10
-0.269000
 20
0.539000
  0
VERTEX
  8
gg1
 10
-0.269000
 20
0.529000
  0
VERTEX
  8
gg1
 10
-0.309000
 20
0.529000
  0
VERTEX
  8
gg1
 10
-0.309000
 20
0.519000
  0
SEQEND
  8
gg1
  0
POLYLINE
  8
gg1
 62
1
 40
0.000000
 41
0.000000
 66
  1
  0
VERTEX
  8
gg1
 10
-0.269000
 20
0.569000
  0
VERTEX
  8
gg1
 10
-0.269000
 20
0.588900
  0
VERTEX
  8
gg1
 10
-0.269000
 20
0.579000
  0
VERTEX
  8
gg1
 10
-0.329000
 20
0.579000
  0
VERTEX
  8
gg1
 10
-0.329000
 20
0.569000
  0
SEQEND
  8
gg1
  0
POLYLINE
  8
gg1
 62
1
 40
0.000000
 41
0.000000
 66
  1
  0
VERTEX
  8
gg1
 10
0.229000
 20
-0.211000
  0
VERTEX
  8
gg1
 10
0.239000
 20
-0.201000
  0
VERTEX
  8
gg1
 10
0.259000
 20
-0.201000
  0
VERTEX
  8
gg1
 10
0.269000
 20
-0.211000
  0
VERTEX
  8
gg1
 10
0.269000
 20
-0.221000
  0
VERTEX
  8
gg1
 10
0.259000
 20
-0.231000
  0
VERTEX
  8
gg1
 10
0.269000
 20
-0.241000
  0
VERTEX
  8
gg1
 10
0.269000
 20
-0.251000
  0
VERTEX
  8
gg1
 10
0.259000
 20
-0.261000
  0
VERTEX
  8
gg1
 10
0.239000
 20
-0.261000
  0
VERTEX
  8
gg1
 10
0.229000
 20
-0.251000
  0
VERTEX
  8
gg1
 10
0.229000
 20
-0.241000
  0
VERTEX
  8
gg1
 10
0.239000
 20
-0.231000
  0
VERTEX
  8
gg1
 10
0.229000
 20
-0.221000
  0
VERTEX
  8
gg1
 10
0.229000
 20
-0.211000
  0
SEQEND
  8
gg1
  0
POLYLINE
  8
gg1
 62
1
 40
0.000000
 41
0.000000
 66
  1
  0
VERTEX
  8
gg1
 10
0.239000
 20
-0.231000
  0
VERTEX
  8
gg1
 10
0.259000
 20
-0.231000
  0
SEQEND
  8
gg1
  0
POLYLINE
  8
gg1
 62
1
 40
0.000000
 41
0.000000
 66
  1
  0
VERTEX
  8
gg1
 10
0.289000
 20
-0.211000
  0
VERTEX
  8
gg1
 10
0.299000
 20
-0.201000
  0
VERTEX
  8
gg1
 10
0.319000
 20
-0.201000
  0
VERTEX
  8
gg1
 10
0.329000
 20
-0.211000
  0
VERTEX
  8
gg1
 10
0.329000
 20
-0.251000
  0
VERTEX
  8
gg1
 10
0.319000
 20
-0.261000
  0
VERTEX
  8
gg1
 10
0.299000
 20
-0.261000
  0
VERTEX
  8
gg1
 10
0.289000
 20
-0.251000
  0
VERTEX
  8
gg1
 10
0.289000
 20
-0.211000
  0
SEQEND
  8
gg1
  0
POLYLINE
  8
gg1
 62
1
 40
0.000000
 41
0.000000
 66
  1
  0
VERTEX
  8
gg1
 10
0.349000
 20
-0.211000
  0
VERTEX
  8
gg1
 10
0.359000
 20
-0.201000
  0
VERTEX
  8
gg1
 10
0.379000
 20
-0.201000
  0
VERTEX
  8
gg1
 10
0.389000
 20
-0.211000
  0
VERTEX
  8
gg1
 10
0.389000
 20
-0.251000
  0
VERTEX
  8
gg1
 10
0.379000
 20
-0.261000
  0
VERTEX
  8
gg1
 10
0.359000
 20
-0.261000
  0
VERTEX
  8
gg1
 10
0.349000
 20
-0.251000
  0
VERTEX
  8
gg1
 10
0.349000
 20
-0.211000
  0
SEQEND
  8
gg1
  0
POLYLINE
  8
gg1
 62
1
 40
0.000000
 41
0.000000
 66
  1
  0
VERTEX
  8
gg1
 10
0.409000
 20
-0.261000
  0
VERTEX
  8
gg1
 10
0.409000
 20
-0.221000
  0
VERTEX
  8
gg1
 10
0.419000
 20
-0.221000
  0
VERTEX
  8
gg1
 10
0.429000
 20
-0.231000
  0
VERTEX
  8
gg1
 10
0.429000
 20
-0.261000
  0
VERTEX
  8
gg1
 10
0.429000
 20
-0.231000
  0
VERTEX
  8
gg1
 10
0.439000
 20
-0.221000
  0
VERTEX
  8
gg1
 10
0.449000
 20
-0.231000
  0
VERTEX
  8
gg1
 10
0.449000
 20
-0.261000
  0
SEQEND
  8
gg1
  0
POLYLINE
  8
gg1
 62
1
 40
0.000000
 41
0.000000
 66
  1
  0
VERTEX
  8
gg1
 10
0.469000
 20
-0.261000
  0
VERTEX
  8
gg1
 10
0.489000
 20
-0.261000
  0
VERTEX
  8
gg1
 10
0.479000
 20
-0.261000
  0
VERTEX
  8
gg1
 10
0.479000
 20
-0.221000
  0
VERTEX
  8
gg1
 10
0.469000
 20
-0.221000
  0
SEQEND
  8
gg1
  0
POLYLINE
  8
gg1
 62
1
 40
0.000000
 41
0.000000
 66
  1
  0
VERTEX
  8
gg1
 10
0.519000
 20
-0.261000
  0
VERTEX
  8
gg1
 10
0.539000
 20
-0.261000
  0
VERTEX
  8
gg1
 10
0.529000
 20
-0.261000
  0
VERTEX
  8
gg1
 10
0.529000
 20
-0.201000
  0
VERTEX
  8
gg1
 10
0.519000
 20
-0.201000
  0
SEQEND
  8
gg1
  0
POLYLINE
  8
gg1
 62
1
 40
0.000000
 41
0.000000
 66
  1
  0
VERTEX
  8
gg1
 10
0.030000
 20
0.200000
  0
VERTEX
  8
gg1
 10
0.070000
 20
0.200000
  0
SEQEND
  8
gg1
  0
POLYLINE
  8
gg1
 62
1
 40
0.000000
 41
0.000000
 66
  1
  0
VERTEX
  8
gg1
 10
0.050000
 20
0.180000
  0
VERTEX
  8
gg1
 10
0.050000
 20
0.220000
  0
SEQEND
  8
gg1
  0
POLYLINE
  8
gg1
 62
1
 40
0.000000
 41
0.000000
 66
  1
  0
VERTEX
  8
gg1
 10
0.480000
 20
0.225000
  0
VERTEX
  8
gg1
 10
0.520000
 20
0.225000
  0
SEQEND
  8
gg1
  0
POLYLINE
  8
gg1
 62
1
 40
0.000000
 41
0.000000
 66
  1
  0
VERTEX
  8
gg1
 10
0.500000
 20
0.205000
  0
VERTEX
  8
gg1
 10
0.500000
 20
0.245000
  0
SEQEND
  8
gg1
  0
POLYLINE
  8
gg1
 62
1
 40
0.000000
 41
0.000000
 66
  1
  0
VERTEX
  8
gg1
 10
0.380000
 20
0.225000
  0
VERTEX
  8
gg1
 10
0.420000
 20
0.225000
  0
SEQEND
  8
gg1
  0
POLYLINE
  8
gg1
 62
1
 40
0.000000
 41
0.000000
 66
  1
  0
VERTEX
  8
gg1
 10
0.400000
 20
0.205000
  0
VERTEX
  8
gg1
 10
0.400000
 20
0.245000
  0
SEQEND
  8
gg1
  0
POLYLINE
  8
gg1
 62
1
 40
0.000000
 41
0.000000
 66
  1
  0
VERTEX
  8
gg1
 10
0.280000
 20
0.225000
  0
VERTEX
  8
gg1
 10
0.320000
 20
0.225000
  0
SEQEND
  8
gg1
  0
POLYLINE
  8
gg1
 62
1
 40
0.000000
 41
0.000000
 66
  1
  0
VERTEX
  8
gg1
 10
0.300000
 20
0.205000
  0
VERTEX
  8
gg1
 10
0.300000
 20
0.245000
  0
SEQEND
  8
gg1
  0
POLYLINE
  8
gg1
 62
1
 40
0.000000
 41
0.000000
 66
  1
  0
VERTEX
  8
gg1
 10
0.441300
 20
0.075000
  0
VERTEX
  8
gg1
 10
0.476800
 20
0.075000
  0
SEQEND
  8
gg1
  0
POLYLINE
  8
gg1
 62
1
 40
0.000000
 41
0.000000
 66
  1
  0
VERTEX
  8
gg1
 10
0.459100
 20
0.057300
  0
VERTEX
  8
gg1
 10
0.459100
 20
0.092700
  0
SEQEND
  8
gg1
  0
POLYLINE
  8
gg1
 62
1
 40
0.000000
 41
0.000000
 66
  1
  0
VERTEX
  8
gg1
 10
0.323200
 20
0.075000
  0
VERTEX
  8
gg1
 10
0.358700
 20
0.075000
  0
SEQEND
  8
gg1
  0
POLYLINE
  8
gg1
 62
1
 40
0.000000
 41
0.000000
 66
  1
  0
VERTEX
  8
gg1
 10
0.340900
 20
0.057300
  0
VERTEX
  8
gg1
 10
0.340900
 20
0.092700
  0
SEQEND
  8
gg1
  0
POLYLINE
  8
gg1
 62
1
 40
0.000000
 41
0.000000
 66
  1
  0
VERTEX
  8
gg1
 10
0.245000
 20
0.175000
  0
VERTEX
  8
gg1
 10
0.265000
 20
0.175000
  0
SEQEND
  8
gg1
  0
POLYLINE
  8
gg1
 62
1
 40
0.000000
 41
0.000000
 66
  1
  0
VERTEX
  8
gg1
 10
0.255000
 20
0.165000
  0
VERTEX
  8
gg1
 10
0.255000
 20
0.185000
  0
SEQEND
  8
gg1
  0
POLYLINE
  8
gg1
 62
1
 40
0.000000
 41
0.000000
 66
  1
  0
VERTEX
  8
gg1
 10
0.730000
 20
0.300000
  0
VERTEX
  8
gg1
 10
0.770000
 20
0.300000
  0
SEQEND
  8
gg1
  0
POLYLINE
  8
gg1
 62
1
 40
0.000000
 41
0.000000
 66
  1
  0
VERTEX
  8
gg1
 10
0.750000
 20
0.280000
  0
VERTEX
  8
gg1
 10
0.750000
 20
0.320000
  0
SEQEND
  8
gg1
  0
POLYLINE
  8
gg1
 62
1
 40
0.000000
 41
0.000000
 66
  1
  0
VERTEX
  8
gg1
 10
0.730000
 20
0.200000
  0
VERTEX
  8
gg1
 10
0.770000
 20
0.200000
  0
SEQEND
  8
gg1
  0
POLYLINE
  8
gg1
 62
1
 40
0.000000
 41
0.000000
 66
  1
  0
VERTEX
  8
gg1
 10
0.750000
 20
0.180000
  0
VERTEX
  8
gg1
 10
0.750000
 20
0.220000
  0
SEQEND
  8
gg1
  0
POLYLINE
  8
gg1
 62
1
 40
0.000000
 41
0.000000
 66
  1
  0
VERTEX
  8
gg1
 10
0.030000
 20
0.300000
  0
VERTEX
  8
gg1
 10
0.070000
 20
0.300000
  0
SEQEND
  8
gg1
  0
POLYLINE
  8
gg1
 62
1
 40
0.000000
 41
0.000000
 66
  1
  0
VERTEX
  8
gg1
 10
0.050000
 20
0.280000
  0
VERTEX
  8
gg1
 10
0.050000
 20
0.320000
  0
SEQEND
  8
gg1
  0
POLYLINE
  8
gg1
 62
1
 40
0.000000
 41
0.000000
 66
  1
  0
VERTEX
  8
gg1
 10
0.730000
 20
0.500000
  0
VERTEX
  8
gg1
 10
0.770000
 20
0.500000
  0
SEQEND
  8
gg1
  0
POLYLINE
  8
gg1
 62
1
 40
0.000000
 41
0.000000
 66
  1
  0
VERTEX
  8
gg1
 10
0.750000
 20
0.480000
  0
VERTEX
  8
gg1
 10
0.750000
 20
0.520000
  0
SEQEND
  8
gg1
  0
POLYLINE
  8
gg1
 62
1
 40
0.000000
 41
0.000000
 66
  1
  0
VERTEX
  8
gg1
 10
0.730000
 20
0.400000
  0
VERTEX
  8
gg1
 10
0.770000
 20
0.400000
  0
SEQEND
  8
gg1
  0
POLYLINE
  8
gg1
 62
1
 40
0.000000
 41
0.000000
 66
  1
  0
VERTEX
  8
gg1
 10
0.750000
 20
0.380000
  0
VERTEX
  8
gg1
 10
0.750000
 20
0.420000
  0
SEQEND
  8
gg1
  0
POLYLINE
  8
gg1
 62
1
 40
0.000000
 41
0.000000
 66
  1
  0
VERTEX
  8
gg1
 10
0.730000
 20
0.700000
  0
VERTEX
  8
gg1
 10
0.770000
 20
0.700000
  0
SEQEND
  8
gg1
  0
POLYLINE
  8
gg1
 62
1
 40
0.000000
 41
0.000000
 66
  1
  0
VERTEX
  8
gg1
 10
0.750000
 20
0.680000
  0
VERTEX
  8
gg1
 10
0.750000
 20
0.720000
  0
SEQEND
  8
gg1
  0
POLYLINE
  8
gg1
 62
1
 40
0.000000
 41
0.000000
 66
  1
  0
VERTEX
  8
gg1
 10
0.730000
 20
0.600000
  0
VERTEX
  8
gg1
 10
0.770000
 20
0.600000
  0
SEQEND
  8
gg1
  0
POLYLINE
  8
gg1
 62
1
 40
0.000000
 41
0.000000
 66
  1
  0
VERTEX
  8
gg1
 10
0.750000
 20
0.580000
  0
VERTEX
  8
gg1
 10
0.750000
 20
0.620000
  0
SEQEND
  8
gg1
  0
POLYLINE
  8
gg1
 62
1
 40
0.000000
 41
0.000000
 66
  1
  0
VERTEX
  8
gg1
 10
0.030000
 20
0.500000
  0
VERTEX
  8
gg1
 10
0.070000
 20
0.500000
  0
SEQEND
  8
gg1
  0
POLYLINE
  8
gg1
 62
1
 40
0.000000
 41
0.000000
 66
  1
  0
VERTEX
  8
gg1
 10
0.050000
 20
0.480000
  0
VERTEX
  8
gg1
 10
0.050000
 20
0.520000
  0
SEQEND
  8
gg1
  0
POLYLINE
  8
gg1
 62
1
 40
0.000000
 41
0.000000
 66
  1
  0
VERTEX
  8
gg1
 10
0.030000
 20
0.400000
  0
VERTEX
  8
gg1
 10
0.070000
 20
0.400000
  0
SEQEND
  8
gg1
  0
POLYLINE
  8
gg1
 62
1
 40
0.000000
 41
0.000000
 66
  1
  0
VERTEX
  8
gg1
 10
0.050000
 20
0.380000
  0
VERTEX
  8
gg1
 10
0.050000
 20
0.420000
  0
SEQEND
  8
gg1
  0
POLYLINE
  8
gg1
 62
1
 40
0.000000
 41
0.000000
 66
  1
  0
VERTEX
  8
gg1
 10
0.030000
 20
0.700000
  0
VERTEX
  8
gg1
 10
0.070000
 20
0.700000
  0
SEQEND
  8
gg1
  0
POLYLINE
  8
gg1
 62
1
 40
0.000000
 41
0.000000
 66
  1
  0
VERTEX
  8
gg1
 10
0.050000
 20
0.680000
  0
VERTEX
  8
gg1
 10
0.050000
 20
0.720000
  0
SEQEND
  8
gg1
  0
POLYLINE
  8
gg1
 62
1
 40
0.000000
 41
0.000000
 66
  1
  0
VERTEX
  8
gg1
 10
0.030000
 20
0.600000
  0
VERTEX
  8
gg1
 10
0.070000
 20
0.600000
  0
SEQEND
  8
gg1
  0
POLYLINE
  8
gg1
 62
1
 40
0.000000
 41
0.000000
 66
  1
  0
VERTEX
  8
gg1
 10
0.050000
 20
0.580000
  0
VERTEX
  8
gg1
 10
0.050000
 20
0.620000
  0
SEQEND
  8
gg1
  0
POLYLINE
  8
gg1
 62
1
 40
0.000000
 41
0.000000
 66
  1
  0
VERTEX
  8
gg1
 10
0.455400
 20
0.810000
  0
VERTEX
  8
gg1
 10
0.541400
 20
0.810000
  0
SEQEND
  8
gg1
  0
POLYLINE
  8
gg1
 62
1
 40
0.000000
 41
0.000000
 66
  1
  0
VERTEX
  8
gg1
 10
0.498400
 20
0.767000
  0
VERTEX
  8
gg1
 10
0.498400
 20
0.853000
  0
SEQEND
  8
gg1
  0
POLYLINE
  8
gg1
 62
1
 40
0.000000
 41
0.000000
 66
  1
  0
VERTEX
  8
gg1
 10
0.652300
 20
0.810000
  0
VERTEX
  8
gg1
 10
0.738300
 20
0.810000
  0
SEQEND
  8
gg1
  0
POLYLINE
  8
gg1
 62
1
 40
0.000000
 41
0.000000
 66
  1
  0
VERTEX
  8
gg1
 10
0.695300
 20
0.767000
  0
VERTEX
  8
gg1
 10
0.695300
 20
0.853000
  0
SEQEND
  8
gg1
  0
POLYLINE
  8
gg1
 62
1
 40
0.000000
 41
0.000000
 66
  1
  0
VERTEX
  8
gg1
 10
0.061700
 20
0.810000
  0
VERTEX
  8
gg1
 10
0.147700
 20
0.810000
  0
SEQEND
  8
gg1
  0
POLYLINE
  8
gg1
 62
1
 40
0.000000
 41
0.000000
 66
  1
  0
VERTEX
  8
gg1
 10
0.104700
 20
0.767000
  0
VERTEX
  8
gg1
 10
0.104700
 20
0.853000
  0
SEQEND
  8
gg1
  0
POLYLINE
  8
gg1
 62
1
 40
0.000000
 41
0.000000
 66
  1
  0
VERTEX
  8
gg1
 10
0.258600
 20
0.810000
  0
VERTEX
  8
gg1
 10
0.344600
 20
0.810000
  0
SEQEND
  8
gg1
  0
POLYLINE
  8
gg1
 62
1
 40
0.000000
 41
0.000000
 66
  1
  0
VERTEX
  8
gg1
 10
0.301600
 20
0.767000
  0
VERTEX
  8
gg1
 10
0.301600
 20
0.853000
  0
SEQEND
  8
gg1
  0
POLYLINE
  8
gg1
 62
1
 40
0.000000
 41
0.000000
 66
  1
  0
VERTEX
  8
gg1
 10
0.167500
 20
0.225000
  0
VERTEX
  8
gg1
 10
0.182500
 20
0.225000
  0
SEQEND
  8
gg1
  0
POLYLINE
  8
gg1
 62
1
 40
0.000000
 41
0.000000
 66
  1
  0
VERTEX
  8
gg1
 10
0.175000
 20
0.217500
  0
VERTEX
  8
gg1
 10
0.175000
 20
0.232500
  0
SEQEND
  8
gg1
  0
POLYLINE
  8
gg1
 62
1
 40
0.000000
 41
0.000000
 66
  1
  0
VERTEX
  8
gg1
 10
0.552500
 20
0.160000
  0
VERTEX
  8
gg1
 10
0.567500
 20
0.160000
  0
SEQEND
  8
gg1
  0
POLYLINE
  8
gg1
 62
1
 40
0.000000
 41
0.000000
 66
  1
  0
VERTEX
  8
gg1
 10
0.560000
 20
0.152500
  0
VERTEX
  8
gg1
 10
0.560000
 20
0.167500
  0
SEQEND
  8
gg1
  0
POLYLINE
  8
gg1
 62
1
 40
0.000000
 41
0.000000
 66
  1
  0
VERTEX
  8
gg1
 10
0.517500
 20
0.160000
  0
VERTEX
  8
gg1
 10
0.532500
 20
0.160000
  0
SEQEND
  8
gg1
  0
POLYLINE
  8
gg1
 62
1
 40
0.000000
 41
0.000000
 66
  1
  0
VERTEX
  8
gg1
 10
0.525000
 20
0.152500
  0
VERTEX
  8
gg1
 10
0.525000
 20
0.167500
  0
SEQEND
  8
gg1
  0
POLYLINE
  8
gg1
 62
1
 40
0.000000
 41
0.000000
 66
  1
  0
VERTEX
  8
gg1
 10
0.502500
 20
0.285000
  0
VERTEX
  8
gg1
 10
0.517500
 20
0.285000
  0
SEQEND
  8
gg1
  0
POLYLINE
  8
gg1
 62
1
 40
0.000000
 41
0.000000
 66
  1
  0
VERTEX
  8
gg1
 10
0.510000
 20
0.277500
  0
VERTEX
  8
gg1
 10
0.510000
 20
0.292500
  0
SEQEND
  8
gg1
  0
POLYLINE
  8
gg1
 62
1
 40
0.000000
 41
0.000000
 66
  1
  0
VERTEX
  8
gg1
 10
0.647500
 20
0.050000
  0
VERTEX
  8
gg1
 10
0.662500
 20
0.050000
  0
SEQEND
  8
gg1
  0
POLYLINE
  8
gg1
 62
1
 40
0.000000
 41
0.000000
 66
  1
  0
VERTEX
  8
gg1
 10
0.655000
 20
0.042500
  0
VERTEX
  8
gg1
 10
0.655000
 20
0.057500
  0
SEQEND
  8
gg1
  0
POLYLINE
  8
gg1
 62
1
 40
0.000000
 41
0.000000
 66
  1
  0
VERTEX
  8
gg1
 10
0.037500
 20
0.130000
  0
VERTEX
  8
gg1
 10
0.052500
 20
0.130000
  0
SEQEND
  8
gg1
  0
POLYLINE
  8
gg1
 62
1
 40
0.000000
 41
0.000000
 66
  1
  0
VERTEX
  8
gg1
 10
0.045000
 20
0.122500
  0
VERTEX
  8
gg1
 10
0.045000
 20
0.137500
  0
SEQEND
  8
gg1
  0
POLYLINE
  8
gg1
 62
1
 40
0.000000
 41
0.000000
 66
  1
  0
VERTEX
  8
gg1
 10
0.747500
 20
0.045000
  0
VERTEX
  8
gg1
 10
0.762500
 20
0.045000
  0
SEQEND
  8
gg1
  0
POLYLINE
  8
gg1
 62
1
 40
0.000000
 41
0.000000
 66
  1
  0
VERTEX
  8
gg1
 10
0.755000
 20
0.037500
  0
VERTEX
  8
gg1
 10
0.755000
 20
0.052500
  0
SEQEND
  8
gg1
  0
POLYLINE
  8
gg1
 62
1
 40
0.000000
 41
0.000000
 66
  1
  0
VERTEX
  8
gg1
 10
0.562500
 20
0.280000
  0
VERTEX
  8
gg1
 10
0.577500
 20
0.280000
  0
SEQEND
  8
gg1
  0
POLYLINE
  8
gg1
 62
1
 40
0.000000
 41
0.000000
 66
  1
  0
VERTEX
  8
gg1
 10
0.570000
 20
0.272500
  0
VERTEX
  8
gg1
 10
0.570000
 20
0.287500
  0
SEQEND
  8
gg1
  0
POLYLINE
  8
gg1
 62
1
 40
0.000000
 41
0.000000
 66
  1
  0
VERTEX
  8
gg1
 10
0.562500
 20
0.215000
  0
VERTEX
  8
gg1
 10
0.577500
 20
0.215000
  0
SEQEND
  8
gg1
  0
POLYLINE
  8
gg1
 62
1
 40
0.000000
 41
0.000000
 66
  1
  0
VERTEX
  8
gg1
 10
0.570000
 20
0.207500
  0
VERTEX
  8
gg1
 10
0.570000
 20
0.222500
  0
SEQEND
  8
gg1
  0
POLYLINE
  8
gg1
 62
1
 40
0.000000
 41
0.000000
 66
  1
  0
VERTEX
  8
gg1
 10
0.562500
 20
0.345000
  0
VERTEX
  8
gg1
 10
0.577500
 20
0.345000
  0
SEQEND
  8
gg1
  0
POLYLINE
  8
gg1
 62
1
 40
0.000000
 41
0.000000
 66
  1
  0
VERTEX
  8
gg1
 10
0.570000
 20
0.337500
  0
VERTEX
  8
gg1
 10
0.570000
 20
0.352500
  0
SEQEND
  8
gg1
  0
POLYLINE
  8
gg1
 62
1
 40
0.000000
 41
0.000000
 66
  1
  0
VERTEX
  8
gg1
 10
0.562500
 20
0.410000
  0
VERTEX
  8
gg1
 10
0.577500
 20
0.410000
  0
SEQEND
  8
gg1
  0
POLYLINE
  8
gg1
 62
1
 40
0.000000
 41
0.000000
 66
  1
  0
VERTEX
  8
gg1
 10
0.570000
 20
0.402500
  0
VERTEX
  8
gg1
 10
0.570000
 20
0.417500
  0
SEQEND
  8
gg1
  0
POLYLINE
  8
gg1
 62
1
 40
0.000000
 41
0.000000
 66
  1
  0
VERTEX
  8
gg1
 10
0.417500
 20
0.410000
  0
VERTEX
  8
gg1
 10
0.432500
 20
0.410000
  0
SEQEND
  8
gg1
  0
POLYLINE
  8
gg1
 62
1
 40
0.000000
 41
0.000000
 66
  1
  0
VERTEX
  8
gg1
 10
0.425000
 20
0.402500
  0
VERTEX
  8
gg1
 10
0.425000
 20
0.417500
  0
SEQEND
  8
gg1
  0
POLYLINE
  8
gg1
 62
1
 40
0.000000
 41
0.000000
 66
  1
  0
VERTEX
  8
gg1
 10
0.507500
 20
0.345000
  0
VERTEX
  8
gg1
 10
0.522500
 20
0.345000
  0
SEQEND
  8
gg1
  0
POLYLINE
  8
gg1
 62
1
 40
0.000000
 41
0.000000
 66
  1
  0
VERTEX
  8
gg1
 10
0.515000
 20
0.337500
  0
VERTEX
  8
gg1
 10
0.515000
 20
0.352500
  0
SEQEND
  8
gg1
  0
POLYLINE
  8
gg1
 62
1
 40
0.000000
 41
0.000000
 66
  1
  0
VERTEX
  8
gg1
 10
0.347500
 20
0.410000
  0
VERTEX
  8
gg1
 10
0.362500
 20
0.410000
  0
SEQEND
  8
gg1
  0
POLYLINE
  8
gg1
 62
1
 40
0.000000
 41
0.000000
 66
  1
  0
VERTEX
  8
gg1
 10
0.355000
 20
0.402500
  0
VERTEX
  8
gg1
 10
0.355000
 20
0.417500
  0
SEQEND
  8
gg1
  0
POLYLINE
  8
gg1
 62
1
 40
0.000000
 41
0.000000
 66
  1
  0
VERTEX
  8
gg1
 10
0.217500
 20
0.410000
  0
VERTEX
  8
gg1
 10
0.232500
 20
0.410000
  0
SEQEND
  8
gg1
  0
POLYLINE
  8
gg1
 62
1
 40
0.000000
 41
0.000000
 66
  1
  0
VERTEX
  8
gg1
 10
0.225000
 20
0.402500
  0
VERTEX
  8
gg1
 10
0.225000
 20
0.417500
  0
SEQEND
  8
gg1
  0
POLYLINE
  8
gg1
 62
1
 40
0.000000
 41
0.000000
 66
  1
  0
VERTEX
  8
gg1
 10
0.277500
 20
0.410000
  0
VERTEX
  8
gg1
 10
0.292500
 20
0.410000
  0
SEQEND
  8
gg1
  0
POLYLINE
  8
gg1
 62
1
 40
0.000000
 41
0.000000
 66
  1
  0
VERTEX
  8
gg1
 10
0.285000
 20
0.402500
  0
VERTEX
  8
gg1
 10
0.285000
 20
0.417500
  0
SEQEND
  8
gg1
  0
POLYLINE
  8
gg1
 62
1
 40
0.000000
 41
0.000000
 66
  1
  0
VERTEX
  8
gg1
 10
0.247500
 20
0.295000
  0
VERTEX
  8
gg1
 10
0.262500
 20
0.295000
  0
SEQEND
  8
gg1
  0
POLYLINE
  8
gg1
 62
1
 40
0.000000
 41
0.000000
 66
  1
  0
VERTEX
  8
gg1
 10
0.255000
 20
0.287500
  0
VERTEX
  8
gg1
 10
0.255000
 20
0.302500
  0
SEQEND
  8
gg1
  0
POLYLINE
  8
gg1
 62
1
 40
0.000000
 41
0.000000
 66
  1
  0
VERTEX
  8
gg1
 10
0.217500
 20
0.350000
  0
VERTEX
  8
gg1
 10
0.232500
 20
0.350000
  0
SEQEND
  8
gg1
  0
POLYLINE
  8
gg1
 62
1
 40
0.000000
 41
0.000000
 66
  1
  0
VERTEX
  8
gg1
 10
0.225000
 20
0.342500
  0
VERTEX
  8
gg1
 10
0.225000
 20
0.357500
  0
SEQEND
  8
gg1
  0
POLYLINE
  8
gg1
 62
1
 40
0.000000
 41
0.000000
 66
  1
  0
VERTEX
  8
gg1
 10
0.277500
 20
0.350000
  0
VERTEX
  8
gg1
 10
0.292500
 20
0.350000
  0
SEQEND
  8
gg1
  0
POLYLINE
  8
gg1
 62
1
 40
0.000000
 41
0.000000
 66
  1
  0
VERTEX
  8
gg1
 10
0.285000
 20
0.342500
  0
VERTEX
  8
gg1
 10
0.285000
 20
0.357500
  0
SEQEND
  8
gg1
  0
POLYLINE
  8
gg1
 62
1
 40
0.000000
 41
0.000000
 66
  1
  0
VERTEX
  8
gg1
 10
0.487500
 20
0.410000
  0
VERTEX
  8
gg1
 10
0.502500
 20
0.410000
  0
SEQEND
  8
gg1
  0
POLYLINE
  8
gg1
 62
1
 40
0.000000
 41
0.000000
 66
  1
  0
VERTEX
  8
gg1
 10
0.495000
 20
0.402500
  0
VERTEX
  8
gg1
 10
0.495000
 20
0.417500
  0
SEQEND
  8
gg1
  0
POLYLINE
  8
gg1
 62
1
 40
0.000000
 41
0.000000
 66
  1
  0
VERTEX
  8
gg1
 10
0.092500
 20
0.620000
  0
VERTEX
  8
gg1
 10
0.107500
 20
0.620000
  0
SEQEND
  8
gg1
  0
POLYLINE
  8
gg1
 62
1
 40
0.000000
 41
0.000000
 66
  1
  0
VERTEX
  8
gg1
 10
0.100000
 20
0.612500
  0
VERTEX
  8
gg1
 10
0.100000
 20
0.627500
  0
SEQEND
  8
gg1
  0
POLYLINE
  8
gg1
 62
1
 40
0.000000
 41
0.000000
 66
  1
  0
VERTEX
  8
gg1
 10
0.087500
 20
0.650000
  0
VERTEX
  8
gg1
 10
0.102500
 20
0.650000
  0
SEQEND
  8
gg1
  0
POLYLINE
  8
gg1
 62
1
 40
0.000000
 41
0.000000
 66
  1
  0
VERTEX
  8
gg1
 10
0.095000
 20
0.642500
  0
VERTEX
  8
gg1
 10
0.095000
 20
0.657500
  0
SEQEND
  8
gg1
  0
POLYLINE
  8
gg1
 62
1
 40
0.000000
 41
0.000000
 66
  1
  0
VERTEX
  8
gg1
 10
0.092500
 20
0.680000
  0
VERTEX
  8
gg1
 10
0.107500
 20
0.680000
  0
SEQEND
  8
gg1
  0
POLYLINE
  8
gg1
 62
1
 40
0.000000
 41
0.000000
 66
  1
  0
VERTEX
  8
gg1
 10
0.100000
 20
0.672500
  0
VERTEX
  8
gg1
 10
0.100000
 20
0.687500
  0
SEQEND
  8
gg1
  0
POLYLINE
  8
gg1
 62
1
 40
0.000000
 41
0.000000
 66
  1
  0
VERTEX
  8
gg1
 10
0.157500
 20
0.750000
  0
VERTEX
  8
gg1
 10
0.172500
 20
0.750000
  0
SEQEND
  8
gg1
  0
POLYLINE
  8
gg1
 62
1
 40
0.000000
 41
0.000000
 66
  1
  0
VERTEX
  8
gg1
 10
0.165000
 20
0.742500
  0
VERTEX
  8
gg1
 10
0.165000
 20
0.757500
  0
SEQEND
  8
gg1
  0
POLYLINE
  8
gg1
 62
1
 40
0.000000
 41
0.000000
 66
  1
  0
VERTEX
  8
gg1
 10
0.192500
 20
0.750000
  0
VERTEX
  8
gg1
 10
0.207500
 20
0.750000
  0
SEQEND
  8
gg1
  0
POLYLINE
  8
gg1
 62
1
 40
0.000000
 41
0.000000
 66
  1
  0
VERTEX
  8
gg1
 10
0.200000
 20
0.742500
  0
VERTEX
  8
gg1
 10
0.200000
 20
0.757500
  0
SEQEND
  8
gg1
  0
POLYLINE
  8
gg1
 62
1
 40
0.000000
 41
0.000000
 66
  1
  0
VERTEX
  8
gg1
 10
0.192500
 20
0.785000
  0
VERTEX
  8
gg1
 10
0.207500
 20
0.785000
  0
SEQEND
  8
gg1
  0
POLYLINE
  8
gg1
 62
1
 40
0.000000
 41
0.000000
 66
  1
  0
VERTEX
  8
gg1
 10
0.200000
 20
0.777500
  0
VERTEX
  8
gg1
 10
0.200000
 20
0.792500
  0
SEQEND
  8
gg1
  0
POLYLINE
  8
gg1
 62
1
 40
0.000000
 41
0.000000
 66
  1
  0
VERTEX
  8
gg1
 10
0.192500
 20
0.820000
  0
VERTEX
  8
gg1
 10
0.207500
 20
0.820000
  0
SEQEND
  8
gg1
  0
POLYLINE
  8
gg1
 62
1
 40
0.000000
 41
0.000000
 66
  1
  0
VERTEX
  8
gg1
 10
0.200000
 20
0.812500
  0
VERTEX
  8
gg1
 10
0.200000
 20
0.827500
  0
SEQEND
  8
gg1
  0
POLYLINE
  8
gg1
 62
1
 40
0.000000
 41
0.000000
 66
  1
  0
VERTEX
  8
gg1
 10
0.192500
 20
0.855000
  0
VERTEX
  8
gg1
 10
0.207500
 20
0.855000
  0
SEQEND
  8
gg1
  0
POLYLINE
  8
gg1
 62
1
 40
0.000000
 41
0.000000
 66
  1
  0
VERTEX
  8
gg1
 10
0.200000
 20
0.847500
  0
VERTEX
  8
gg1
 10
0.200000
 20
0.862500
  0
SEQEND
  8
gg1
  0
POLYLINE
  8
gg1
 62
1
 40
0.000000
 41
0.000000
 66
  1
  0
VERTEX
  8
gg1
 10
0.592900
 20
0.855000
  0
VERTEX
  8
gg1
 10
0.607900
 20
0.855000
  0
SEQEND
  8
gg1
  0
POLYLINE
  8
gg1
 62
1
 40
0.000000
 41
0.000000
 66
  1
  0
VERTEX
  8
gg1
 10
0.600400
 20
0.847500
  0
VERTEX
  8
gg1
 10
0.600400
 20
0.862500
  0
SEQEND
  8
gg1
  0
POLYLINE
  8
gg1
 62
1
 40
0.000000
 41
0.000000
 66
  1
  0
VERTEX
  8
gg1
 10
0.592900
 20
0.820000
  0
VERTEX
  8
gg1
 10
0.607900
 20
0.820000
  0
SEQEND
  8
gg1
  0
POLYLINE
  8
gg1
 62
1
 40
0.000000
 41
0.000000
 66
  1
  0
VERTEX
  8
gg1
 10
0.600400
 20
0.812500
  0
VERTEX
  8
gg1
 10
0.600400
 20
0.827500
  0
SEQEND
  8
gg1
  0
POLYLINE
  8
gg1
 62
1
 40
0.000000
 41
0.000000
 66
  1
  0
VERTEX
  8
gg1
 10
0.592900
 20
0.785000
  0
VERTEX
  8
gg1
 10
0.607900
 20
0.785000
  0
SEQEND
  8
gg1
  0
POLYLINE
  8
gg1
 62
1
 40
0.000000
 41
0.000000
 66
  1
  0
VERTEX
  8
gg1
 10
0.600400
 20
0.777500
  0
VERTEX
  8
gg1
 10
0.600400
 20
0.792500
  0
SEQEND
  8
gg1
  0
POLYLINE
  8
gg1
 62
1
 40
0.000000
 41
0.000000
 66
  1
  0
VERTEX
  8
gg1
 10
0.592900
 20
0.750000
  0
VERTEX
  8
gg1
 10
0.607900
 20
0.750000
  0
SEQEND
  8
gg1
  0
POLYLINE
  8
gg1
 62
1
 40
0.000000
 41
0.000000
 66
  1
  0
VERTEX
  8
gg1
 10
0.600400
 20
0.742500
  0
VERTEX
  8
gg1
 10
0.600400
 20
0.757500
  0
SEQEND
  8
gg1
  0
POLYLINE
  8
gg1
 62
1
 40
0.000000
 41
0.000000
 66
  1
  0
VERTEX
  8
gg1
 10
0.627500
 20
0.750000
  0
VERTEX
  8
gg1
 10
0.642500
 20
0.750000
  0
SEQEND
  8
gg1
  0
POLYLINE
  8
gg1
 62
1
 40
0.000000
 41
0.000000
 66
  1
  0
VERTEX
  8
gg1
 10
0.635000
 20
0.742500
  0
VERTEX
  8
gg1
 10
0.635000
 20
0.757500
  0
SEQEND
  8
gg1
  0
POLYLINE
  8
gg1
 62
1
 40
0.000000
 41
0.000000
 66
  1
  0
VERTEX
  8
gg1
 10
0.692500
 20
0.680000
  0
VERTEX
  8
gg1
 10
0.707500
 20
0.680000
  0
SEQEND
  8
gg1
  0
POLYLINE
  8
gg1
 62
1
 40
0.000000
 41
0.000000
 66
  1
  0
VERTEX
  8
gg1
 10
0.700000
 20
0.672500
  0
VERTEX
  8
gg1
 10
0.700000
 20
0.687500
  0
SEQEND
  8
gg1
  0
POLYLINE
  8
gg1
 62
1
 40
0.000000
 41
0.000000
 66
  1
  0
VERTEX
  8
gg1
 10
0.697500
 20
0.650000
  0
VERTEX
  8
gg1
 10
0.712500
 20
0.650000
  0
SEQEND
  8
gg1
  0
POLYLINE
  8
gg1
 62
1
 40
0.000000
 41
0.000000
 66
  1
  0
VERTEX
  8
gg1
 10
0.705000
 20
0.642500
  0
VERTEX
  8
gg1
 10
0.705000
 20
0.657500
  0
SEQEND
  8
gg1
  0
POLYLINE
  8
gg1
 62
1
 40
0.000000
 41
0.000000
 66
  1
  0
VERTEX
  8
gg1
 10
0.692500
 20
0.620000
  0
VERTEX
  8
gg1
 10
0.707500
 20
0.620000
  0
SEQEND
  8
gg1
  0
POLYLINE
  8
gg1
 62
1
 40
0.000000
 41
0.000000
 66
  1
  0
VERTEX
  8
gg1
 10
0.700000
 20
0.612500
  0
VERTEX
  8
gg1
 10
0.700000
 20
0.627500
  0
SEQEND
  8
gg1
  0
POLYLINE
  8
gg1
 62
1
 40
0.000000
 41
0.000000
 66
  1
  0
VERTEX
  8
gg1
 10
0.392500
 20
0.855000
  0
VERTEX
  8
gg1
 10
0.407500
 20
0.855000
  0
SEQEND
  8
gg1
  0
POLYLINE
  8
gg1
 62
1
 40
0.000000
 41
0.000000
 66
  1
  0
VERTEX
  8
gg1
 10
0.400000
 20
0.847500
  0
VERTEX
  8
gg1
 10
0.400000
 20
0.862500
  0
SEQEND
  8
gg1
  0
POLYLINE
  8
gg1
 62
1
 40
0.000000
 41
0.000000
 66
  1
  0
VERTEX
  8
gg1
 10
0.392500
 20
0.825000
  0
VERTEX
  8
gg1
 10
0.407500
 20
0.825000
  0
SEQEND
  8
gg1
  0
POLYLINE
  8
gg1
 62
1
 40
0.000000
 41
0.000000
 66
  1
  0
VERTEX
  8
gg1
 10
0.400000
 20
0.817500
  0
VERTEX
  8
gg1
 10
0.400000
 20
0.832500
  0
SEQEND
  8
gg1
  0
POLYLINE
  8
gg1
 62
1
 40
0.000000
 41
0.000000
 66
  1
  0
VERTEX
  8
gg1
 10
0.392700
 20
0.795000
  0
VERTEX
  8
gg1
 10
0.407700
 20
0.795000
  0
SEQEND
  8
gg1
  0
POLYLINE
  8
gg1
 62
1
 40
0.000000
 41
0.000000
 66
  1
  0
VERTEX
  8
gg1
 10
0.400200
 20
0.787500
  0
VERTEX
  8
gg1
 10
0.400200
 20
0.802500
  0
SEQEND
  8
gg1
  0
POLYLINE
  8
gg1
 62
1
 40
0.000000
 41
0.000000
 66
  1
  0
VERTEX
  8
gg1
 10
0.392500
 20
0.765000
  0
VERTEX
  8
gg1
 10
0.407500
 20
0.765000
  0
SEQEND
  8
gg1
  0
POLYLINE
  8
gg1
 62
1
 40
0.000000
 41
0.000000
 66
  1
  0
VERTEX
  8
gg1
 10
0.400000
 20
0.757500
  0
VERTEX
  8
gg1
 10
0.400000
 20
0.772500
  0
SEQEND
  8
gg1
  0
ENDSEC
  0
EOF
