  0
SECTION
  2
HEADER
  9
$EXTMIN
 10
-0.127000
 20
-0.203000
  9
$EXTMAX
 10
0.405000
 20
0.905000
  9
$LIMMIN
 10
-0.127000
 20
-0.203000
  9
$LIMMAX
 10
0.405000
 20
0.905000
  9
$FILLMODE
 70
  1
  0
ENDSEC
  0
SECTION
  2
TABLES
  0
TABLE
  2
LTYPE
 70
  1
  0
LTYPE
  2
CONTINUOUS
 70
 64
  3
Solid line
 72
 65
 73
  0
 40
0.0
  0
ENDTAB
  0
TABLE
  2
LAYER
 70
 1
  0
LAYER
  2
0
 70
  0
 62
7
  6
CONTINUOUS
  0
LAYER
  2
gg1
 70
  0
 62
1
  6
CONTINUOUS
  0
ENDTAB
  0
TABLE
  2
STYLE
 70
  1
  0
STYLE
  2
STANDARD
 70
  0
 40
0.0
 41
1.0
 50
0.0
 71
  0
 42
0.2
  3
txt
  4

  0
ENDTAB
  0
ENDSEC
  0
SECTION
  2
BLOCKS
  0
BLOCK
  8
0
  2
D10
 70
64
 10
0.0
 20
0.0
  3
D10
  0
CIRCLE
  8
0
 10
0.000000
 20
0.000000
 40
0.005000
 0
ENDBLK
  8
0
  0
BLOCK
  8
0
  2
D11
 70
64
 10
0.0
 20
0.0
  3
D11
  0
CIRCLE
  8
0
 10
0.000000
 20
0.000000
 40
0.002500
 0
ENDBLK
  8
0
  0
BLOCK
  8
0
  2
D12
 70
64
 10
0.0
 20
0.0
  3
D12
  0
CIRCLE
  8
0
 10
0.000000
 20
0.000000
 40
0.003000
 0
ENDBLK
  8
0
  0
ENDSEC
  0
SECTION
  2
ENTITIES
  0
POLYLINE
  8
gg1
 62
1
 40
0.000000
 41
0.000000
 66
  1
  0
VERTEX
  8
gg1
 10
0.400000
 20
-0.110000
  0
VERTEX
  8
gg1
 10
0.400000
 20
-0.012500
  0
SEQEND
  8
gg1
  0
POLYLINE
  8
gg1
 62
1
 40
0.000000
 41
0.000000
 66
  1
  0
VERTEX
  8
gg1
 10
0.000000
 20
-0.110000
  0
VERTEX
  8
gg1
 10
0.000000
 20
-0.012500
  0
SEQEND
  8
gg1
  0
POLYLINE
  8
gg1
 62
1
 40
0.000000
 41
0.000000
 66
  1
  0
VERTEX
  8
gg1
 10
0.200000
 20
-0.100000
  0
VERTEX
  8
gg1
 10
0.400000
 20
-0.100000
  0
SEQEND
  8
gg1
  0
POLYLINE
  8
gg1
 62
1
 40
0.000000
 41
0.000000
 66
  1
  0
VERTEX
  8
gg1
 10
0.000000
 20
-0.100000
  0
VERTEX
  8
gg1
 10
0.200000
 20
-0.100000
  0
SEQEND
  8
gg1
  0
POLYLINE
  8
gg1
 62
1
 40
0.000000
 41
0.000000
 66
  1
  0
VERTEX
  8
gg1
 10
0.340000
 20
-0.080000
  0
VERTEX
  8
gg1
 10
0.400000
 20
-0.100000
  0
SEQEND
  8
gg1
  0
POLYLINE
  8
gg1
 62
1
 40
0.000000
 41
0.000000
 66
  1
  0
VERTEX
  8
gg1
 10
0.340000
 20
-0.120000
  0
VERTEX
  8
gg1
 10
0.400000
 20
-0.100000
  0
SEQEND
  8
gg1
  0
POLYLINE
  8
gg1
 62
1
 40
0.000000
 41
0.000000
 66
  1
  0
VERTEX
  8
gg1
 10
0.000000
 20
-0.100000
  0
VERTEX
  8
gg1
 10
0.060000
 20
-0.120000
  0
SEQEND
  8
gg1
  0
POLYLINE
  8
gg1
 62
1
 40
0.000000
 41
0.000000
 66
  1
  0
VERTEX
  8
gg1
 10
0.000000
 20
-0.100000
  0
VERTEX
  8
gg1
 10
0.060000
 20
-0.080000
  0
SEQEND
  8
gg1
  0
POLYLINE
  8
gg1
 62
1
 40
0.000000
 41
0.000000
 66
  1
  0
VERTEX
  8
gg1
 10
-0.110000
 20
0.900000
  0
VERTEX
  8
gg1
 10
-0.012500
 20
0.900000
  0
SEQEND
  8
gg1
  0
POLYLINE
  8
gg1
 62
1
 40
0.000000
 41
0.000000
 66
  1
  0
VERTEX
  8
gg1
 10
-0.110000
 20
0.000000
  0
VERTEX
  8
gg1
 10
-0.012500
 20
0.000000
  0
SEQEND
  8
gg1
  0
POLYLINE
  8
gg1
 62
1
 40
0.000000
 41
0.000000
 66
  1
  0
VERTEX
  8
gg1
 10
-0.100000
 20
0.605000
  0
VERTEX
  8
gg1
 10
-0.100000
 20
0.900000
  0
SEQEND
  8
gg1
  0
POLYLINE
  8
gg1
 62
1
 40
0.000000
 41
0.000000
 66
  1
  0
VERTEX
  8
gg1
 10
-0.100000
 20
0.000000
  0
VERTEX
  8
gg1
 10
-0.100000
 20
0.263000
  0
SEQEND
  8
gg1
  0
POLYLINE
  8
gg1
 62
1
 40
0.000000
 41
0.000000
 66
  1
  0
VERTEX
  8
gg1
 10
-0.120000
 20
0.840000
  0
VERTEX
  8
gg1
 10
-0.100000
 20
0.900000
  0
VERTEX
  8
gg1
 10
-0.080000
 20
0.840000
  0
SEQEND
  8
gg1
  0
POLYLINE
  8
gg1
 62
1
 40
0.000000
 41
0.000000
 66
  1
  0
VERTEX
  8
gg1
 10
-0.100000
 20
0.000000
  0
VERTEX
  8
gg1
 10
-0.080000
 20
0.060000
  0
SEQEND
  8
gg1
  0
POLYLINE
  8
gg1
 62
1
 40
0.000000
 41
0.000000
 66
  1
  0
VERTEX
  8
gg1
 10
-0.120000
 20
0.060000
  0
VERTEX
  8
gg1
 10
-0.100000
 20
0.000000
  0
SEQEND
  8
gg1
  0
POLYLINE
  8
gg1
 62
1
 40
0.000000
 41
0.000000
 66
  1
  0
VERTEX
  8
gg1
 10
0.000000
 20
0.000000
  0
VERTEX
  8
gg1
 10
0.400000
 20
0.000000
  0
VERTEX
  8
gg1
 10
0.400000
 20
0.900000
  0
SEQEND
  8
gg1
  0
POLYLINE
  8
gg1
 62
1
 40
0.000000
 41
0.000000
 66
  1
  0
VERTEX
  8
gg1
 10
0.000000
 20
0.900000
  0
VERTEX
  8
gg1
 10
0.400000
 20
0.900000
  0
SEQEND
  8
gg1
  0
POLYLINE
  8
gg1
 62
1
 40
0.000000
 41
0.000000
 66
  1
  0
VERTEX
  8
gg1
 10
0.000000
 20
0.000000
  0
VERTEX
  8
gg1
 10
0.000000
 20
0.900000
  0
SEQEND
  8
gg1
  0
POLYLINE
  8
gg1
 62
1
 40
0.000000
 41
0.000000
 66
  1
  0
VERTEX
  8
gg1
 10
0.030000
 20
0.050000
  0
VERTEX
  8
gg1
 10
0.070000
 20
0.050000
  0
SEQEND
  8
gg1
  0
POLYLINE
  8
gg1
 62
1
 40
0.000000
 41
0.000000
 66
  1
  0
VERTEX
  8
gg1
 10
0.050000
 20
0.030000
  0
VERTEX
  8
gg1
 10
0.050000
 20
0.070000
  0
SEQEND
  8
gg1
  0
POLYLINE
  8
gg1
 62
1
 40
0.000000
 41
0.000000
 66
  1
  0
VERTEX
  8
gg1
 10
0.030000
 20
0.150000
  0
VERTEX
  8
gg1
 10
0.070000
 20
0.150000
  0
SEQEND
  8
gg1
  0
POLYLINE
  8
gg1
 62
1
 40
0.000000
 41
0.000000
 66
  1
  0
VERTEX
  8
gg1
 10
0.050000
 20
0.130000
  0
VERTEX
  8
gg1
 10
0.050000
 20
0.170000
  0
SEQEND
  8
gg1
  0
POLYLINE
  8
gg1
 62
1
 40
0.000000
 41
0.000000
 66
  1
  0
VERTEX
  8
gg1
 10
0.030000
 20
0.250000
  0
VERTEX
  8
gg1
 10
0.070000
 20
0.250000
  0
SEQEND
  8
gg1
  0
POLYLINE
  8
gg1
 62
1
 40
0.000000
 41
0.000000
 66
  1
  0
VERTEX
  8
gg1
 10
0.050000
 20
0.230000
  0
VERTEX
  8
gg1
 10
0.050000
 20
0.270000
  0
SEQEND
  8
gg1
  0
POLYLINE
  8
gg1
 62
1
 40
0.000000
 41
0.000000
 66
  1
  0
VERTEX
  8
gg1
 10
0.030000
 20
0.350000
  0
VERTEX
  8
gg1
 10
0.070000
 20
0.350000
  0
SEQEND
  8
gg1
  0
POLYLINE
  8
gg1
 62
1
 40
0.000000
 41
0.000000
 66
  1
  0
VERTEX
  8
gg1
 10
0.050000
 20
0.330000
  0
VERTEX
  8
gg1
 10
0.050000
 20
0.370000
  0
SEQEND
  8
gg1
  0
POLYLINE
  8
gg1
 62
1
 40
0.000000
 41
0.000000
 66
  1
  0
VERTEX
  8
gg1
 10
0.030000
 20
0.850000
  0
VERTEX
  8
gg1
 10
0.070000
 20
0.850000
  0
SEQEND
  8
gg1
  0
POLYLINE
  8
gg1
 62
1
 40
0.000000
 41
0.000000
 66
  1
  0
VERTEX
  8
gg1
 10
0.050000
 20
0.830000
  0
VERTEX
  8
gg1
 10
0.050000
 20
0.870000
  0
SEQEND
  8
gg1
  0
POLYLINE
  8
gg1
 62
1
 40
0.000000
 41
0.000000
 66
  1
  0
VERTEX
  8
gg1
 10
0.030000
 20
0.750000
  0
VERTEX
  8
gg1
 10
0.070000
 20
0.750000
  0
SEQEND
  8
gg1
  0
POLYLINE
  8
gg1
 62
1
 40
0.000000
 41
0.000000
 66
  1
  0
VERTEX
  8
gg1
 10
0.050000
 20
0.730000
  0
VERTEX
  8
gg1
 10
0.050000
 20
0.770000
  0
SEQEND
  8
gg1
  0
POLYLINE
  8
gg1
 62
1
 40
0.000000
 41
0.000000
 66
  1
  0
VERTEX
  8
gg1
 10
0.030000
 20
0.650000
  0
VERTEX
  8
gg1
 10
0.070000
 20
0.650000
  0
SEQEND
  8
gg1
  0
POLYLINE
  8
gg1
 62
1
 40
0.000000
 41
0.000000
 66
  1
  0
VERTEX
  8
gg1
 10
0.050000
 20
0.630000
  0
VERTEX
  8
gg1
 10
0.050000
 20
0.670000
  0
SEQEND
  8
gg1
  0
POLYLINE
  8
gg1
 62
1
 40
0.000000
 41
0.000000
 66
  1
  0
VERTEX
  8
gg1
 10
0.030000
 20
0.550000
  0
VERTEX
  8
gg1
 10
0.070000
 20
0.550000
  0
SEQEND
  8
gg1
  0
POLYLINE
  8
gg1
 62
1
 40
0.000000
 41
0.000000
 66
  1
  0
VERTEX
  8
gg1
 10
0.050000
 20
0.530000
  0
VERTEX
  8
gg1
 10
0.050000
 20
0.570000
  0
SEQEND
  8
gg1
  0
POLYLINE
  8
gg1
 62
1
 40
0.000000
 41
0.000000
 66
  1
  0
VERTEX
  8
gg1
 10
0.030000
 20
0.450000
  0
VERTEX
  8
gg1
 10
0.070000
 20
0.450000
  0
SEQEND
  8
gg1
  0
POLYLINE
  8
gg1
 62
1
 40
0.000000
 41
0.000000
 66
  1
  0
VERTEX
  8
gg1
 10
0.050000
 20
0.430000
  0
VERTEX
  8
gg1
 10
0.050000
 20
0.470000
  0
SEQEND
  8
gg1
  0
POLYLINE
  8
gg1
 62
1
 40
0.000000
 41
0.000000
 66
  1
  0
VERTEX
  8
gg1
 10
0.130000
 20
0.050000
  0
VERTEX
  8
gg1
 10
0.170000
 20
0.050000
  0
SEQEND
  8
gg1
  0
POLYLINE
  8
gg1
 62
1
 40
0.000000
 41
0.000000
 66
  1
  0
VERTEX
  8
gg1
 10
0.150000
 20
0.030000
  0
VERTEX
  8
gg1
 10
0.150000
 20
0.070000
  0
SEQEND
  8
gg1
  0
POLYLINE
  8
gg1
 62
1
 40
0.000000
 41
0.000000
 66
  1
  0
VERTEX
  8
gg1
 10
0.257000
 20
0.100000
  0
VERTEX
  8
gg1
 10
0.343000
 20
0.100000
  0
SEQEND
  8
gg1
  0
POLYLINE
  8
gg1
 62
1
 40
0.000000
 41
0.000000
 66
  1
  0
VERTEX
  8
gg1
 10
0.300000
 20
0.057000
  0
VERTEX
  8
gg1
 10
0.300000
 20
0.143000
  0
SEQEND
  8
gg1
  0
POLYLINE
  8
gg1
 62
1
 40
0.000000
 41
0.000000
 66
  1
  0
VERTEX
  8
gg1
 10
0.257500
 20
0.685000
  0
VERTEX
  8
gg1
 10
0.272500
 20
0.685000
  0
SEQEND
  8
gg1
  0
POLYLINE
  8
gg1
 62
1
 40
0.000000
 41
0.000000
 66
  1
  0
VERTEX
  8
gg1
 10
0.265000
 20
0.677500
  0
VERTEX
  8
gg1
 10
0.265000
 20
0.692500
  0
SEQEND
  8
gg1
  0
POLYLINE
  8
gg1
 62
1
 40
0.000000
 41
0.000000
 66
  1
  0
VERTEX
  8
gg1
 10
0.322500
 20
0.685000
  0
VERTEX
  8
gg1
 10
0.337500
 20
0.685000
  0
SEQEND
  8
gg1
  0
POLYLINE
  8
gg1
 62
1
 40
0.000000
 41
0.000000
 66
  1
  0
VERTEX
  8
gg1
 10
0.330000
 20
0.677500
  0
VERTEX
  8
gg1
 10
0.330000
 20
0.692500
  0
SEQEND
  8
gg1
  0
POLYLINE
  8
gg1
 62
1
 40
0.000000
 41
0.000000
 66
  1
  0
VERTEX
  8
gg1
 10
0.347500
 20
0.850000
  0
VERTEX
  8
gg1
 10
0.362500
 20
0.850000
  0
SEQEND
  8
gg1
  0
POLYLINE
  8
gg1
 62
1
 40
0.000000
 41
0.000000
 66
  1
  0
VERTEX
  8
gg1
 10
0.355000
 20
0.842500
  0
VERTEX
  8
gg1
 10
0.355000
 20
0.857500
  0
SEQEND
  8
gg1
  0
POLYLINE
  8
gg1
 62
1
 40
0.000000
 41
0.000000
 66
  1
  0
VERTEX
  8
gg1
 10
0.237500
 20
0.520000
  0
VERTEX
  8
gg1
 10
0.252500
 20
0.520000
  0
SEQEND
  8
gg1
  0
POLYLINE
  8
gg1
 62
1
 40
0.000000
 41
0.000000
 66
  1
  0
VERTEX
  8
gg1
 10
0.245000
 20
0.512500
  0
VERTEX
  8
gg1
 10
0.245000
 20
0.527500
  0
SEQEND
  8
gg1
  0
POLYLINE
  8
gg1
 62
1
 40
0.000000
 41
0.000000
 66
  1
  0
VERTEX
  8
gg1
 10
0.262500
 20
0.430000
  0
VERTEX
  8
gg1
 10
0.277500
 20
0.430000
  0
SEQEND
  8
gg1
  0
POLYLINE
  8
gg1
 62
1
 40
0.000000
 41
0.000000
 66
  1
  0
VERTEX
  8
gg1
 10
0.270000
 20
0.422500
  0
VERTEX
  8
gg1
 10
0.270000
 20
0.437500
  0
SEQEND
  8
gg1
  0
POLYLINE
  8
gg1
 62
1
 40
0.000000
 41
0.000000
 66
  1
  0
VERTEX
  8
gg1
 10
0.182500
 20
0.375000
  0
VERTEX
  8
gg1
 10
0.197500
 20
0.375000
  0
SEQEND
  8
gg1
  0
POLYLINE
  8
gg1
 62
1
 40
0.000000
 41
0.000000
 66
  1
  0
VERTEX
  8
gg1
 10
0.190000
 20
0.367500
  0
VERTEX
  8
gg1
 10
0.190000
 20
0.382500
  0
SEQEND
  8
gg1
  0
POLYLINE
  8
gg1
 62
1
 40
0.000000
 41
0.000000
 66
  1
  0
VERTEX
  8
gg1
 10
0.312500
 20
0.587500
  0
VERTEX
  8
gg1
 10
0.327500
 20
0.587500
  0
SEQEND
  8
gg1
  0
POLYLINE
  8
gg1
 62
1
 40
0.000000
 41
0.000000
 66
  1
  0
VERTEX
  8
gg1
 10
0.320000
 20
0.580000
  0
VERTEX
  8
gg1
 10
0.320000
 20
0.595000
  0
SEQEND
  8
gg1
  0
POLYLINE
  8
gg1
 62
1
 40
0.000000
 41
0.000000
 66
  1
  0
VERTEX
  8
gg1
 10
0.222500
 20
0.380000
  0
VERTEX
  8
gg1
 10
0.237500
 20
0.380000
  0
SEQEND
  8
gg1
  0
POLYLINE
  8
gg1
 62
1
 40
0.000000
 41
0.000000
 66
  1
  0
VERTEX
  8
gg1
 10
0.230000
 20
0.372500
  0
VERTEX
  8
gg1
 10
0.230000
 20
0.387500
  0
SEQEND
  8
gg1
  0
POLYLINE
  8
gg1
 62
1
 40
0.000000
 41
0.000000
 66
  1
  0
VERTEX
  8
gg1
 10
0.307500
 20
0.430000
  0
VERTEX
  8
gg1
 10
0.322500
 20
0.430000
  0
SEQEND
  8
gg1
  0
POLYLINE
  8
gg1
 62
1
 40
0.000000
 41
0.000000
 66
  1
  0
VERTEX
  8
gg1
 10
0.315000
 20
0.422500
  0
VERTEX
  8
gg1
 10
0.315000
 20
0.437500
  0
SEQEND
  8
gg1
  0
POLYLINE
  8
gg1
 62
1
 40
0.000000
 41
0.000000
 66
  1
  0
VERTEX
  8
gg1
 10
0.152500
 20
0.652500
  0
VERTEX
  8
gg1
 10
0.167500
 20
0.652500
  0
SEQEND
  8
gg1
  0
POLYLINE
  8
gg1
 62
1
 40
0.000000
 41
0.000000
 66
  1
  0
VERTEX
  8
gg1
 10
0.160000
 20
0.645000
  0
VERTEX
  8
gg1
 10
0.160000
 20
0.660000
  0
SEQEND
  8
gg1
  0
POLYLINE
  8
gg1
 62
1
 40
0.000000
 41
0.000000
 66
  1
  0
VERTEX
  8
gg1
 10
0.262500
 20
0.385000
  0
VERTEX
  8
gg1
 10
0.277500
 20
0.385000
  0
SEQEND
  8
gg1
  0
POLYLINE
  8
gg1
 62
1
 40
0.000000
 41
0.000000
 66
  1
  0
VERTEX
  8
gg1
 10
0.270000
 20
0.377500
  0
VERTEX
  8
gg1
 10
0.270000
 20
0.392500
  0
SEQEND
  8
gg1
  0
POLYLINE
  8
gg1
 62
1
 40
0.000000
 41
0.000000
 66
  1
  0
VERTEX
  8
gg1
 10
0.282500
 20
0.280000
  0
VERTEX
  8
gg1
 10
0.297500
 20
0.280000
  0
SEQEND
  8
gg1
  0
POLYLINE
  8
gg1
 62
1
 40
0.000000
 41
0.000000
 66
  1
  0
VERTEX
  8
gg1
 10
0.290000
 20
0.272500
  0
VERTEX
  8
gg1
 10
0.290000
 20
0.287500
  0
SEQEND
  8
gg1
  0
POLYLINE
  8
gg1
 62
1
 40
0.000000
 41
0.000000
 66
  1
  0
VERTEX
  8
gg1
 10
0.322500
 20
0.280000
  0
VERTEX
  8
gg1
 10
0.337500
 20
0.280000
  0
SEQEND
  8
gg1
  0
POLYLINE
  8
gg1
 62
1
 40
0.000000
 41
0.000000
 66
  1
  0
VERTEX
  8
gg1
 10
0.330000
 20
0.272500
  0
VERTEX
  8
gg1
 10
0.330000
 20
0.287500
  0
SEQEND
  8
gg1
  0
POLYLINE
  8
gg1
 62
1
 40
0.000000
 41
0.000000
 66
  1
  0
VERTEX
  8
gg1
 10
0.098400
 20
0.460900
  0
VERTEX
  8
gg1
 10
0.113400
 20
0.460900
  0
SEQEND
  8
gg1
  0
POLYLINE
  8
gg1
 62
1
 40
0.000000
 41
0.000000
 66
  1
  0
VERTEX
  8
gg1
 10
0.105900
 20
0.453400
  0
VERTEX
  8
gg1
 10
0.105900
 20
0.468400
  0
SEQEND
  8
gg1
  0
POLYLINE
  8
gg1
 62
1
 40
0.000000
 41
0.000000
 66
  1
  0
VERTEX
  8
gg1
 10
0.080000
 20
-0.200000
  0
VERTEX
  8
gg1
 10
0.080000
 20
-0.140000
  0
VERTEX
  8
gg1
 10
0.050000
 20
-0.170000
  0
VERTEX
  8
gg1
 10
0.090000
 20
-0.170000
  0
SEQEND
  8
gg1
  0
POLYLINE
  8
gg1
 62
1
 40
0.000000
 41
0.000000
 66
  1
  0
VERTEX
  8
gg1
 10
0.110000
 20
-0.150000
  0
VERTEX
  8
gg1
 10
0.120000
 20
-0.140000
  0
VERTEX
  8
gg1
 10
0.140000
 20
-0.140000
  0
VERTEX
  8
gg1
 10
0.150000
 20
-0.150000
  0
VERTEX
  8
gg1
 10
0.150000
 20
-0.190000
  0
VERTEX
  8
gg1
 10
0.140000
 20
-0.200000
  0
VERTEX
  8
gg1
 10
0.120000
 20
-0.200000
  0
VERTEX
  8
gg1
 10
0.110000
 20
-0.190000
  0
VERTEX
  8
gg1
 10
0.110000
 20
-0.150000
  0
SEQEND
  8
gg1
  0
POLYLINE
  8
gg1
 62
1
 40
0.000000
 41
0.000000
 66
  1
  0
VERTEX
  8
gg1
 10
0.170000
 20
-0.150000
  0
VERTEX
  8
gg1
 10
0.180000
 20
-0.140000
  0
VERTEX
  8
gg1
 10
0.200000
 20
-0.140000
  0
VERTEX
  8
gg1
 10
0.209900
 20
-0.150000
  0
VERTEX
  8
gg1
 10
0.209900
 20
-0.190000
  0
VERTEX
  8
gg1
 10
0.200000
 20
-0.200000
  0
VERTEX
  8
gg1
 10
0.180000
 20
-0.200000
  0
VERTEX
  8
gg1
 10
0.170000
 20
-0.190000
  0
VERTEX
  8
gg1
 10
0.170000
 20
-0.150000
  0
SEQEND
  8
gg1
  0
POLYLINE
  8
gg1
 62
1
 40
0.000000
 41
0.000000
 66
  1
  0
VERTEX
  8
gg1
 10
0.229900
 20
-0.200000
  0
VERTEX
  8
gg1
 10
0.229900
 20
-0.160000
  0
VERTEX
  8
gg1
 10
0.239900
 20
-0.160000
  0
VERTEX
  8
gg1
 10
0.249900
 20
-0.170000
  0
VERTEX
  8
gg1
 10
0.249900
 20
-0.200000
  0
VERTEX
  8
gg1
 10
0.249900
 20
-0.170000
  0
VERTEX
  8
gg1
 10
0.259900
 20
-0.160000
  0
VERTEX
  8
gg1
 10
0.269900
 20
-0.170000
  0
VERTEX
  8
gg1
 10
0.269900
 20
-0.200000
  0
SEQEND
  8
gg1
  0
POLYLINE
  8
gg1
 62
1
 40
0.000000
 41
0.000000
 66
  1
  0
VERTEX
  8
gg1
 10
0.289900
 20
-0.200000
  0
VERTEX
  8
gg1
 10
0.309900
 20
-0.200000
  0
VERTEX
  8
gg1
 10
0.299900
 20
-0.200000
  0
VERTEX
  8
gg1
 10
0.299900
 20
-0.160000
  0
VERTEX
  8
gg1
 10
0.289900
 20
-0.160000
  0
SEQEND
  8
gg1
  0
POLYLINE
  8
gg1
 62
1
 40
0.000000
 41
0.000000
 66
  1
  0
VERTEX
  8
gg1
 10
0.339900
 20
-0.200000
  0
VERTEX
  8
gg1
 10
0.359900
 20
-0.200000
  0
VERTEX
  8
gg1
 10
0.349900
 20
-0.200000
  0
VERTEX
  8
gg1
 10
0.349900
 20
-0.140000
  0
VERTEX
  8
gg1
 10
0.339900
 20
-0.140000
  0
SEQEND
  8
gg1
  0
POLYLINE
  8
gg1
 62
1
 40
0.000000
 41
0.000000
 66
  1
  0
VERTEX
  8
gg1
 10
-0.074000
 20
0.279000
  0
VERTEX
  8
gg1
 10
-0.064000
 20
0.289000
  0
VERTEX
  8
gg1
 10
-0.064000
 20
0.309000
  0
VERTEX
  8
gg1
 10
-0.074000
 20
0.319000
  0
VERTEX
  8
gg1
 10
-0.114000
 20
0.319000
  0
VERTEX
  8
gg1
 10
-0.124000
 20
0.309000
  0
VERTEX
  8
gg1
 10
-0.124000
 20
0.289000
  0
VERTEX
  8
gg1
 10
-0.114000
 20
0.279000
  0
VERTEX
  8
gg1
 10
-0.104000
 20
0.279000
  0
VERTEX
  8
gg1
 10
-0.094000
 20
0.289000
  0
VERTEX
  8
gg1
 10
-0.094000
 20
0.319000
  0
SEQEND
  8
gg1
  0
POLYLINE
  8
gg1
 62
1
 40
0.000000
 41
0.000000
 66
  1
  0
VERTEX
  8
gg1
 10
-0.114000
 20
0.339000
  0
VERTEX
  8
gg1
 10
-0.124000
 20
0.349000
  0
VERTEX
  8
gg1
 10
-0.124000
 20
0.369000
  0
VERTEX
  8
gg1
 10
-0.114000
 20
0.379000
  0
VERTEX
  8
gg1
 10
-0.074000
 20
0.379000
  0
VERTEX
  8
gg1
 10
-0.064000
 20
0.369000
  0
VERTEX
  8
gg1
 10
-0.064000
 20
0.349000
  0
VERTEX
  8
gg1
 10
-0.074000
 20
0.339000
  0
VERTEX
  8
gg1
 10
-0.114000
 20
0.339000
  0
SEQEND
  8
gg1
  0
POLYLINE
  8
gg1
 62
1
 40
0.000000
 41
0.000000
 66
  1
  0
VERTEX
  8
gg1
 10
-0.114000
 20
0.399000
  0
VERTEX
  8
gg1
 10
-0.124000
 20
0.409000
  0
VERTEX
  8
gg1
 10
-0.124000
 20
0.429000
  0
VERTEX
  8
gg1
 10
-0.114000
 20
0.439000
  0
VERTEX
  8
gg1
 10
-0.074000
 20
0.439000
  0
VERTEX
  8
gg1
 10
-0.064000
 20
0.429000
  0
VERTEX
  8
gg1
 10
-0.064000
 20
0.409000
  0
VERTEX
  8
gg1
 10
-0.074000
 20
0.399000
  0
VERTEX
  8
gg1
 10
-0.114000
 20
0.399000
  0
SEQEND
  8
gg1
  0
POLYLINE
  8
gg1
 62
1
 40
0.000000
 41
0.000000
 66
  1
  0
VERTEX
  8
gg1
 10
-0.064000
 20
0.459000
  0
VERTEX
  8
gg1
 10
-0.104000
 20
0.459000
  0
VERTEX
  8
gg1
 10
-0.104000
 20
0.469000
  0
VERTEX
  8
gg1
 10
-0.094000
 20
0.479000
  0
VERTEX
  8
gg1
 10
-0.064000
 20
0.479000
  0
VERTEX
  8
gg1
 10
-0.094000
 20
0.479000
  0
VERTEX
  8
gg1
 10
-0.104000
 20
0.489000
  0
VERTEX
  8
gg1
 10
-0.094000
 20
0.499000
  0
VERTEX
  8
gg1
 10
-0.064000
 20
0.499000
  0
SEQEND
  8
gg1
  0
POLYLINE
  8
gg1
 62
1
 40
0.000000
 41
0.000000
 66
  1
  0
VERTEX
  8
gg1
 10
-0.064000
 20
0.519000
  0
VERTEX
  8
gg1
 10
-0.064000
 20
0.539000
  0
VERTEX
  8
gg1
 10
-0.064000
 20
0.529000
  0
VERTEX
  8
gg1
 10
-0.104000
 20
0.529000
  0
VERTEX
  8
gg1
 10
-0.104000
 20
0.519000
  0
SEQEND
  8
gg1
  0
POLYLINE
  8
gg1
 62
1
 40
0.000000
 41
0.000000
 66
  1
  0
VERTEX
  8
gg1
 10
-0.064000
 20
0.569000
  0
VERTEX
  8
gg1
 10
-0.064000
 20
0.588900
  0
VERTEX
  8
gg1
 10
-0.064000
 20
0.579000
  0
VERTEX
  8
gg1
 10
-0.124000
 20
0.579000
  0
VERTEX
  8
gg1
 10
-0.124000
 20
0.569000
  0
SEQEND
  8
gg1
  0
ENDSEC
  0
EOF
