  0
SECTION
  2
HEADER
  9
$EXTMIN
 10
0.910000
 20
0.483000
  9
$EXTMAX
 10
1.550000
 20
1.135000
  9
$LIMMIN
 10
0.910000
 20
0.483000
  9
$LIMMAX
 10
1.550000
 20
1.135000
  9
$FILLMODE
 70
  1
  0
ENDSEC
  0
SECTION
  2
TABLES
  0
TABLE
  2
LTYPE
 70
  1
  0
LTYPE
  2
CONTINUOUS
 70
 64
  3
Solid line
 72
 65
 73
  0
 40
0.0
  0
ENDTAB
  0
TABLE
  2
LAYER
 70
 1
  0
LAYER
  2
0
 70
  0
 62
7
  6
CONTINUOUS
  0
LAYER
  2
gg1
 70
  0
 62
1
  6
CONTINUOUS
  0
ENDTAB
  0
TABLE
  2
STYLE
 70
  1
  0
STYLE
  2
STANDARD
 70
  0
 40
0.0
 41
1.0
 50
0.0
 71
  0
 42
0.2
  3
txt
  4

  0
ENDTAB
  0
ENDSEC
  0
SECTION
  2
BLOCKS
  0
BLOCK
  8
0
  2
D10
 70
64
 10
0.0
 20
0.0
  3
D10
  0
CIRCLE
  8
0
 10
0.000000
 20
0.000000
 40
0.002500
 0
ENDBLK
  8
0
  0
BLOCK
  8
0
  2
D11
 70
64
 10
0.0
 20
0.0
  3
D11
  0
CIRCLE
  8
0
 10
0.000000
 20
0.000000
 40
0.005000
 0
ENDBLK
  8
0
  0
BLOCK
  8
0
  2
D12
 70
64
 10
0.0
 20
0.0
  3
D12
  0
CIRCLE
  8
0
 10
0.000000
 20
0.000000
 40
0.003000
 0
ENDBLK
  8
0
  0
BLOCK
  8
0
  2
D13
 70
64
 10
0.0
 20
0.0
  3
D13
  0
CIRCLE
  8
0
 10
0.000000
 20
0.000000
 40
0.001000
 0
ENDBLK
  8
0
  0
ENDSEC
  0
SECTION
  2
ENTITIES
  0
POLYLINE
  8
gg1
 62
1
 40
0.000000
 41
0.000000
 66
  1
  0
VERTEX
  8
gg1
 10
1.145000
 20
0.730000
  0
VERTEX
  8
gg1
 10
1.545000
 20
0.730000
  0
VERTEX
  8
gg1
 10
1.545000
 20
1.130000
  0
SEQEND
  8
gg1
  0
POLYLINE
  8
gg1
 62
1
 40
0.000000
 41
0.000000
 66
  1
  0
VERTEX
  8
gg1
 10
1.145000
 20
1.130000
  0
VERTEX
  8
gg1
 10
1.545000
 20
1.130000
  0
SEQEND
  8
gg1
  0
POLYLINE
  8
gg1
 62
1
 40
0.000000
 41
0.000000
 66
  1
  0
VERTEX
  8
gg1
 10
1.145000
 20
0.730000
  0
VERTEX
  8
gg1
 10
1.145000
 20
1.130000
  0
SEQEND
  8
gg1
  0
POLYLINE
  8
gg1
 62
1
 40
0.000000
 41
0.000000
 66
  1
  0
VERTEX
  8
gg1
 10
1.145000
 20
0.630000
  0
VERTEX
  8
gg1
 10
1.205000
 20
0.650000
  0
SEQEND
  8
gg1
  0
POLYLINE
  8
gg1
 62
1
 40
0.000000
 41
0.000000
 66
  1
  0
VERTEX
  8
gg1
 10
1.145000
 20
0.630000
  0
VERTEX
  8
gg1
 10
1.205000
 20
0.610000
  0
SEQEND
  8
gg1
  0
POLYLINE
  8
gg1
 62
1
 40
0.000000
 41
0.000000
 66
  1
  0
VERTEX
  8
gg1
 10
1.485000
 20
0.610000
  0
VERTEX
  8
gg1
 10
1.545000
 20
0.630000
  0
SEQEND
  8
gg1
  0
POLYLINE
  8
gg1
 62
1
 40
0.000000
 41
0.000000
 66
  1
  0
VERTEX
  8
gg1
 10
1.485000
 20
0.650000
  0
VERTEX
  8
gg1
 10
1.545000
 20
0.630000
  0
SEQEND
  8
gg1
  0
POLYLINE
  8
gg1
 62
1
 40
0.000000
 41
0.000000
 66
  1
  0
VERTEX
  8
gg1
 10
1.145000
 20
0.630000
  0
VERTEX
  8
gg1
 10
1.345000
 20
0.630000
  0
VERTEX
  8
gg1
 10
1.545000
 20
0.630000
  0
SEQEND
  8
gg1
  0
POLYLINE
  8
gg1
 62
1
 40
0.000000
 41
0.000000
 66
  1
  0
VERTEX
  8
gg1
 10
1.145000
 20
0.620000
  0
VERTEX
  8
gg1
 10
1.145000
 20
0.717500
  0
SEQEND
  8
gg1
  0
POLYLINE
  8
gg1
 62
1
 40
0.000000
 41
0.000000
 66
  1
  0
VERTEX
  8
gg1
 10
1.545000
 20
0.620000
  0
VERTEX
  8
gg1
 10
1.545000
 20
0.717500
  0
SEQEND
  8
gg1
  0
POLYLINE
  8
gg1
 62
1
 40
0.000000
 41
0.000000
 66
  1
  0
VERTEX
  8
gg1
 10
1.045000
 20
1.130000
  0
VERTEX
  8
gg1
 10
1.065000
 20
1.070000
  0
SEQEND
  8
gg1
  0
POLYLINE
  8
gg1
 62
1
 40
0.000000
 41
0.000000
 66
  1
  0
VERTEX
  8
gg1
 10
1.025000
 20
1.070000
  0
VERTEX
  8
gg1
 10
1.045000
 20
1.130000
  0
SEQEND
  8
gg1
  0
POLYLINE
  8
gg1
 62
1
 40
0.000000
 41
0.000000
 66
  1
  0
VERTEX
  8
gg1
 10
1.025000
 20
0.790000
  0
VERTEX
  8
gg1
 10
1.045000
 20
0.730000
  0
VERTEX
  8
gg1
 10
1.065000
 20
0.790000
  0
SEQEND
  8
gg1
  0
POLYLINE
  8
gg1
 62
1
 40
0.000000
 41
0.000000
 66
  1
  0
VERTEX
  8
gg1
 10
1.045000
 20
0.930000
  0
VERTEX
  8
gg1
 10
1.045000
 20
1.130000
  0
SEQEND
  8
gg1
  0
POLYLINE
  8
gg1
 62
1
 40
0.000000
 41
0.000000
 66
  1
  0
VERTEX
  8
gg1
 10
1.045000
 20
0.730000
  0
VERTEX
  8
gg1
 10
1.045000
 20
0.930000
  0
SEQEND
  8
gg1
  0
POLYLINE
  8
gg1
 62
1
 40
0.000000
 41
0.000000
 66
  1
  0
VERTEX
  8
gg1
 10
1.035000
 20
1.130000
  0
VERTEX
  8
gg1
 10
1.132500
 20
1.130000
  0
SEQEND
  8
gg1
  0
POLYLINE
  8
gg1
 62
1
 40
0.000000
 41
0.000000
 66
  1
  0
VERTEX
  8
gg1
 10
1.035000
 20
0.730000
  0
VERTEX
  8
gg1
 10
1.132500
 20
0.730000
  0
SEQEND
  8
gg1
  0
POLYLINE
  8
gg1
 62
1
 40
0.000000
 41
0.000000
 66
  1
  0
VERTEX
  8
gg1
 10
1.204000
 20
0.486000
  0
VERTEX
  8
gg1
 10
1.204000
 20
0.546000
  0
VERTEX
  8
gg1
 10
1.174000
 20
0.516000
  0
VERTEX
  8
gg1
 10
1.214000
 20
0.516000
  0
SEQEND
  8
gg1
  0
POLYLINE
  8
gg1
 62
1
 40
0.000000
 41
0.000000
 66
  1
  0
VERTEX
  8
gg1
 10
1.234000
 20
0.536000
  0
VERTEX
  8
gg1
 10
1.244000
 20
0.546000
  0
VERTEX
  8
gg1
 10
1.264000
 20
0.546000
  0
VERTEX
  8
gg1
 10
1.274000
 20
0.536000
  0
VERTEX
  8
gg1
 10
1.274000
 20
0.496000
  0
VERTEX
  8
gg1
 10
1.264000
 20
0.486000
  0
VERTEX
  8
gg1
 10
1.244000
 20
0.486000
  0
VERTEX
  8
gg1
 10
1.234000
 20
0.496000
  0
VERTEX
  8
gg1
 10
1.234000
 20
0.536000
  0
SEQEND
  8
gg1
  0
POLYLINE
  8
gg1
 62
1
 40
0.000000
 41
0.000000
 66
  1
  0
VERTEX
  8
gg1
 10
1.294000
 20
0.536000
  0
VERTEX
  8
gg1
 10
1.304000
 20
0.546000
  0
VERTEX
  8
gg1
 10
1.324000
 20
0.546000
  0
VERTEX
  8
gg1
 10
1.334000
 20
0.536000
  0
VERTEX
  8
gg1
 10
1.334000
 20
0.496000
  0
VERTEX
  8
gg1
 10
1.324000
 20
0.486000
  0
VERTEX
  8
gg1
 10
1.304000
 20
0.486000
  0
VERTEX
  8
gg1
 10
1.294000
 20
0.496000
  0
VERTEX
  8
gg1
 10
1.294000
 20
0.536000
  0
SEQEND
  8
gg1
  0
POLYLINE
  8
gg1
 62
1
 40
0.000000
 41
0.000000
 66
  1
  0
VERTEX
  8
gg1
 10
1.354000
 20
0.486000
  0
VERTEX
  8
gg1
 10
1.354000
 20
0.526000
  0
VERTEX
  8
gg1
 10
1.364000
 20
0.526000
  0
VERTEX
  8
gg1
 10
1.374000
 20
0.516000
  0
VERTEX
  8
gg1
 10
1.374000
 20
0.486000
  0
VERTEX
  8
gg1
 10
1.374000
 20
0.516000
  0
VERTEX
  8
gg1
 10
1.384000
 20
0.526000
  0
VERTEX
  8
gg1
 10
1.394000
 20
0.516000
  0
VERTEX
  8
gg1
 10
1.394000
 20
0.486000
  0
SEQEND
  8
gg1
  0
POLYLINE
  8
gg1
 62
1
 40
0.000000
 41
0.000000
 66
  1
  0
VERTEX
  8
gg1
 10
1.414000
 20
0.486000
  0
VERTEX
  8
gg1
 10
1.434000
 20
0.486000
  0
VERTEX
  8
gg1
 10
1.424000
 20
0.486000
  0
VERTEX
  8
gg1
 10
1.424000
 20
0.526000
  0
VERTEX
  8
gg1
 10
1.414000
 20
0.526000
  0
SEQEND
  8
gg1
  0
POLYLINE
  8
gg1
 62
1
 40
0.000000
 41
0.000000
 66
  1
  0
VERTEX
  8
gg1
 10
1.464000
 20
0.486000
  0
VERTEX
  8
gg1
 10
1.484000
 20
0.486000
  0
VERTEX
  8
gg1
 10
1.474000
 20
0.486000
  0
VERTEX
  8
gg1
 10
1.474000
 20
0.546000
  0
VERTEX
  8
gg1
 10
1.464000
 20
0.546000
  0
SEQEND
  8
gg1
  0
POLYLINE
  8
gg1
 62
1
 40
0.000000
 41
0.000000
 66
  1
  0
VERTEX
  8
gg1
 10
0.973000
 20
0.789000
  0
VERTEX
  8
gg1
 10
0.913000
 20
0.789000
  0
VERTEX
  8
gg1
 10
0.943000
 20
0.759100
  0
VERTEX
  8
gg1
 10
0.943000
 20
0.799000
  0
SEQEND
  8
gg1
  0
POLYLINE
  8
gg1
 62
1
 40
0.000000
 41
0.000000
 66
  1
  0
VERTEX
  8
gg1
 10
0.923000
 20
0.819000
  0
VERTEX
  8
gg1
 10
0.913000
 20
0.829000
  0
VERTEX
  8
gg1
 10
0.913000
 20
0.849000
  0
VERTEX
  8
gg1
 10
0.923000
 20
0.859000
  0
VERTEX
  8
gg1
 10
0.963000
 20
0.859000
  0
VERTEX
  8
gg1
 10
0.973000
 20
0.849000
  0
VERTEX
  8
gg1
 10
0.973000
 20
0.829000
  0
VERTEX
  8
gg1
 10
0.963000
 20
0.819000
  0
VERTEX
  8
gg1
 10
0.923000
 20
0.819000
  0
SEQEND
  8
gg1
  0
POLYLINE
  8
gg1
 62
1
 40
0.000000
 41
0.000000
 66
  1
  0
VERTEX
  8
gg1
 10
0.923000
 20
0.879000
  0
VERTEX
  8
gg1
 10
0.913000
 20
0.889000
  0
VERTEX
  8
gg1
 10
0.913000
 20
0.909000
  0
VERTEX
  8
gg1
 10
0.923000
 20
0.919000
  0
VERTEX
  8
gg1
 10
0.963000
 20
0.919000
  0
VERTEX
  8
gg1
 10
0.973000
 20
0.909000
  0
VERTEX
  8
gg1
 10
0.973000
 20
0.889000
  0
VERTEX
  8
gg1
 10
0.963000
 20
0.879000
  0
VERTEX
  8
gg1
 10
0.923000
 20
0.879000
  0
SEQEND
  8
gg1
  0
POLYLINE
  8
gg1
 62
1
 40
0.000000
 41
0.000000
 66
  1
  0
VERTEX
  8
gg1
 10
0.973000
 20
0.939000
  0
VERTEX
  8
gg1
 10
0.933000
 20
0.939000
  0
VERTEX
  8
gg1
 10
0.933000
 20
0.949000
  0
VERTEX
  8
gg1
 10
0.943000
 20
0.959000
  0
VERTEX
  8
gg1
 10
0.973000
 20
0.959000
  0
VERTEX
  8
gg1
 10
0.943000
 20
0.959000
  0
VERTEX
  8
gg1
 10
0.933000
 20
0.969000
  0
VERTEX
  8
gg1
 10
0.943000
 20
0.979000
  0
VERTEX
  8
gg1
 10
0.973000
 20
0.979000
  0
SEQEND
  8
gg1
  0
POLYLINE
  8
gg1
 62
1
 40
0.000000
 41
0.000000
 66
  1
  0
VERTEX
  8
gg1
 10
0.973000
 20
0.999000
  0
VERTEX
  8
gg1
 10
0.973000
 20
1.019000
  0
VERTEX
  8
gg1
 10
0.973000
 20
1.009000
  0
VERTEX
  8
gg1
 10
0.933000
 20
1.009000
  0
VERTEX
  8
gg1
 10
0.933000
 20
0.999000
  0
SEQEND
  8
gg1
  0
POLYLINE
  8
gg1
 62
1
 40
0.000000
 41
0.000000
 66
  1
  0
VERTEX
  8
gg1
 10
0.973000
 20
1.049000
  0
VERTEX
  8
gg1
 10
0.973000
 20
1.069000
  0
VERTEX
  8
gg1
 10
0.973000
 20
1.059000
  0
VERTEX
  8
gg1
 10
0.913000
 20
1.059000
  0
VERTEX
  8
gg1
 10
0.913000
 20
1.049000
  0
SEQEND
  8
gg1
  0
POLYLINE
  8
gg1
 62
1
 40
0.000000
 41
0.000000
 66
  1
  0
VERTEX
  8
gg1
 10
1.175000
 20
0.780000
  0
VERTEX
  8
gg1
 10
1.215000
 20
0.780000
  0
SEQEND
  8
gg1
  0
POLYLINE
  8
gg1
 62
1
 40
0.000000
 41
0.000000
 66
  1
  0
VERTEX
  8
gg1
 10
1.195000
 20
0.760000
  0
VERTEX
  8
gg1
 10
1.195000
 20
0.800000
  0
SEQEND
  8
gg1
  0
POLYLINE
  8
gg1
 62
1
 40
0.000000
 41
0.000000
 66
  1
  0
VERTEX
  8
gg1
 10
1.175000
 20
0.880000
  0
VERTEX
  8
gg1
 10
1.215000
 20
0.880000
  0
SEQEND
  8
gg1
  0
POLYLINE
  8
gg1
 62
1
 40
0.000000
 41
0.000000
 66
  1
  0
VERTEX
  8
gg1
 10
1.195000
 20
0.860000
  0
VERTEX
  8
gg1
 10
1.195000
 20
0.900000
  0
SEQEND
  8
gg1
  0
POLYLINE
  8
gg1
 62
1
 40
0.000000
 41
0.000000
 66
  1
  0
VERTEX
  8
gg1
 10
1.175000
 20
0.980000
  0
VERTEX
  8
gg1
 10
1.215000
 20
0.980000
  0
SEQEND
  8
gg1
  0
POLYLINE
  8
gg1
 62
1
 40
0.000000
 41
0.000000
 66
  1
  0
VERTEX
  8
gg1
 10
1.195000
 20
0.960000
  0
VERTEX
  8
gg1
 10
1.195000
 20
1.000000
  0
SEQEND
  8
gg1
  0
POLYLINE
  8
gg1
 62
1
 40
0.000000
 41
0.000000
 66
  1
  0
VERTEX
  8
gg1
 10
1.475000
 20
1.080000
  0
VERTEX
  8
gg1
 10
1.515000
 20
1.080000
  0
SEQEND
  8
gg1
  0
POLYLINE
  8
gg1
 62
1
 40
0.000000
 41
0.000000
 66
  1
  0
VERTEX
  8
gg1
 10
1.495000
 20
1.060000
  0
VERTEX
  8
gg1
 10
1.495000
 20
1.100000
  0
SEQEND
  8
gg1
  0
POLYLINE
  8
gg1
 62
1
 40
0.000000
 41
0.000000
 66
  1
  0
VERTEX
  8
gg1
 10
1.475000
 20
0.980000
  0
VERTEX
  8
gg1
 10
1.515000
 20
0.980000
  0
SEQEND
  8
gg1
  0
POLYLINE
  8
gg1
 62
1
 40
0.000000
 41
0.000000
 66
  1
  0
VERTEX
  8
gg1
 10
1.495000
 20
0.960000
  0
VERTEX
  8
gg1
 10
1.495000
 20
1.000000
  0
SEQEND
  8
gg1
  0
POLYLINE
  8
gg1
 62
1
 40
0.000000
 41
0.000000
 66
  1
  0
VERTEX
  8
gg1
 10
1.475000
 20
0.880000
  0
VERTEX
  8
gg1
 10
1.515000
 20
0.880000
  0
SEQEND
  8
gg1
  0
POLYLINE
  8
gg1
 62
1
 40
0.000000
 41
0.000000
 66
  1
  0
VERTEX
  8
gg1
 10
1.495000
 20
0.860000
  0
VERTEX
  8
gg1
 10
1.495000
 20
0.900000
  0
SEQEND
  8
gg1
  0
POLYLINE
  8
gg1
 62
1
 40
0.000000
 41
0.000000
 66
  1
  0
VERTEX
  8
gg1
 10
1.475000
 20
0.780000
  0
VERTEX
  8
gg1
 10
1.515000
 20
0.780000
  0
SEQEND
  8
gg1
  0
POLYLINE
  8
gg1
 62
1
 40
0.000000
 41
0.000000
 66
  1
  0
VERTEX
  8
gg1
 10
1.495000
 20
0.760000
  0
VERTEX
  8
gg1
 10
1.495000
 20
0.800000
  0
SEQEND
  8
gg1
  0
POLYLINE
  8
gg1
 62
1
 40
0.000000
 41
0.000000
 66
  1
  0
VERTEX
  8
gg1
 10
1.245000
 20
0.840000
  0
VERTEX
  8
gg1
 10
1.265000
 20
0.840000
  0
SEQEND
  8
gg1
  0
POLYLINE
  8
gg1
 62
1
 40
0.000000
 41
0.000000
 66
  1
  0
VERTEX
  8
gg1
 10
1.255000
 20
0.830000
  0
VERTEX
  8
gg1
 10
1.255000
 20
0.850000
  0
SEQEND
  8
gg1
  0
POLYLINE
  8
gg1
 62
1
 40
0.000000
 41
0.000000
 66
  1
  0
VERTEX
  8
gg1
 10
1.385000
 20
0.855000
  0
VERTEX
  8
gg1
 10
1.405000
 20
0.855000
  0
SEQEND
  8
gg1
  0
POLYLINE
  8
gg1
 62
1
 40
0.000000
 41
0.000000
 66
  1
  0
VERTEX
  8
gg1
 10
1.395000
 20
0.845000
  0
VERTEX
  8
gg1
 10
1.395000
 20
0.865000
  0
SEQEND
  8
gg1
  0
POLYLINE
  8
gg1
 62
1
 40
0.000000
 41
0.000000
 66
  1
  0
VERTEX
  8
gg1
 10
1.320000
 20
0.970000
  0
VERTEX
  8
gg1
 10
1.340000
 20
0.970000
  0
SEQEND
  8
gg1
  0
POLYLINE
  8
gg1
 62
1
 40
0.000000
 41
0.000000
 66
  1
  0
VERTEX
  8
gg1
 10
1.330000
 20
0.960000
  0
VERTEX
  8
gg1
 10
1.330000
 20
0.980000
  0
SEQEND
  8
gg1
  0
ENDSEC
  0
EOF
