  0
SECTION
  2
HEADER
  9
$EXTMIN
 10
-0.167000
 20
-0.347000
  9
$EXTMAX
 10
0.405000
 20
0.505000
  9
$LIMMIN
 10
-0.167000
 20
-0.347000
  9
$LIMMAX
 10
0.405000
 20
0.505000
  9
$FILLMODE
 70
  1
  0
ENDSEC
  0
SECTION
  2
TABLES
  0
TABLE
  2
LTYPE
 70
  1
  0
LTYPE
  2
CONTINUOUS
 70
 64
  3
Solid line
 72
 65
 73
  0
 40
0.0
  0
ENDTAB
  0
TABLE
  2
LAYER
 70
 1
  0
LAYER
  2
0
 70
  0
 62
7
  6
CONTINUOUS
  0
LAYER
  2
gg1
 70
  0
 62
1
  6
CONTINUOUS
  0
ENDTAB
  0
TABLE
  2
STYLE
 70
  1
  0
STYLE
  2
STANDARD
 70
  0
 40
0.0
 41
1.0
 50
0.0
 71
  0
 42
0.2
  3
txt
  4

  0
ENDTAB
  0
ENDSEC
  0
SECTION
  2
BLOCKS
  0
BLOCK
  8
0
  2
D10
 70
64
 10
0.0
 20
0.0
  3
D10
  0
CIRCLE
  8
0
 10
0.000000
 20
0.000000
 40
0.005000
 0
ENDBLK
  8
0
  0
BLOCK
  8
0
  2
D11
 70
64
 10
0.0
 20
0.0
  3
D11
  0
CIRCLE
  8
0
 10
0.000000
 20
0.000000
 40
0.003000
 0
ENDBLK
  8
0
  0
BLOCK
  8
0
  2
D12
 70
64
 10
0.0
 20
0.0
  3
D12
  0
CIRCLE
  8
0
 10
0.000000
 20
0.000000
 40
0.002500
 0
ENDBLK
  8
0
  0
ENDSEC
  0
SECTION
  2
ENTITIES
  0
POLYLINE
  8
gg1
 62
1
 40
0.000000
 41
0.000000
 66
  1
  0
VERTEX
  8
gg1
 10
-0.150000
 20
0.500000
  0
VERTEX
  8
gg1
 10
-0.010000
 20
0.500000
  0
SEQEND
  8
gg1
  0
POLYLINE
  8
gg1
 62
1
 40
0.000000
 41
0.000000
 66
  1
  0
VERTEX
  8
gg1
 10
-0.150000
 20
0.000000
  0
VERTEX
  8
gg1
 10
-0.010000
 20
0.000000
  0
SEQEND
  8
gg1
  0
POLYLINE
  8
gg1
 62
1
 40
0.000000
 41
0.000000
 66
  1
  0
VERTEX
  8
gg1
 10
-0.140000
 20
0.404900
  0
VERTEX
  8
gg1
 10
-0.140000
 20
0.500000
  0
SEQEND
  8
gg1
  0
POLYLINE
  8
gg1
 62
1
 40
0.000000
 41
0.000000
 66
  1
  0
VERTEX
  8
gg1
 10
-0.140000
 20
0.000000
  0
VERTEX
  8
gg1
 10
-0.140000
 20
0.063100
  0
SEQEND
  8
gg1
  0
POLYLINE
  8
gg1
 62
1
 40
0.000000
 41
0.000000
 66
  1
  0
VERTEX
  8
gg1
 10
-0.160000
 20
0.440000
  0
VERTEX
  8
gg1
 10
-0.140000
 20
0.500000
  0
VERTEX
  8
gg1
 10
-0.120000
 20
0.440000
  0
SEQEND
  8
gg1
  0
POLYLINE
  8
gg1
 62
1
 40
0.000000
 41
0.000000
 66
  1
  0
VERTEX
  8
gg1
 10
-0.140000
 20
0.000000
  0
VERTEX
  8
gg1
 10
-0.120000
 20
0.060000
  0
SEQEND
  8
gg1
  0
POLYLINE
  8
gg1
 62
1
 40
0.000000
 41
0.000000
 66
  1
  0
VERTEX
  8
gg1
 10
-0.160000
 20
0.060000
  0
VERTEX
  8
gg1
 10
-0.140000
 20
0.000000
  0
SEQEND
  8
gg1
  0
POLYLINE
  8
gg1
 62
1
 40
0.000000
 41
0.000000
 66
  1
  0
VERTEX
  8
gg1
 10
0.300000
 20
-0.210000
  0
VERTEX
  8
gg1
 10
0.300000
 20
-0.010000
  0
SEQEND
  8
gg1
  0
POLYLINE
  8
gg1
 62
1
 40
0.000000
 41
0.000000
 66
  1
  0
VERTEX
  8
gg1
 10
0.000000
 20
-0.210000
  0
VERTEX
  8
gg1
 10
0.000000
 20
-0.010000
  0
SEQEND
  8
gg1
  0
POLYLINE
  8
gg1
 62
1
 40
0.000000
 41
0.000000
 66
  1
  0
VERTEX
  8
gg1
 10
-0.100000
 20
-0.200000
  0
VERTEX
  8
gg1
 10
0.000000
 20
-0.200000
  0
SEQEND
  8
gg1
  0
POLYLINE
  8
gg1
 62
1
 40
0.000000
 41
0.000000
 66
  1
  0
VERTEX
  8
gg1
 10
0.300000
 20
-0.200000
  0
VERTEX
  8
gg1
 10
0.400000
 20
-0.200000
  0
SEQEND
  8
gg1
  0
POLYLINE
  8
gg1
 62
1
 40
0.000000
 41
0.000000
 66
  1
  0
VERTEX
  8
gg1
 10
-0.060000
 20
-0.180000
  0
VERTEX
  8
gg1
 10
0.000000
 20
-0.200000
  0
SEQEND
  8
gg1
  0
POLYLINE
  8
gg1
 62
1
 40
0.000000
 41
0.000000
 66
  1
  0
VERTEX
  8
gg1
 10
-0.060000
 20
-0.220000
  0
VERTEX
  8
gg1
 10
0.000000
 20
-0.200000
  0
SEQEND
  8
gg1
  0
POLYLINE
  8
gg1
 62
1
 40
0.000000
 41
0.000000
 66
  1
  0
VERTEX
  8
gg1
 10
0.300000
 20
-0.200000
  0
VERTEX
  8
gg1
 10
0.360000
 20
-0.220000
  0
SEQEND
  8
gg1
  0
POLYLINE
  8
gg1
 62
1
 40
0.000000
 41
0.000000
 66
  1
  0
VERTEX
  8
gg1
 10
0.300000
 20
-0.200000
  0
VERTEX
  8
gg1
 10
0.360000
 20
-0.180000
  0
SEQEND
  8
gg1
  0
POLYLINE
  8
gg1
 62
1
 40
0.000000
 41
0.000000
 66
  1
  0
VERTEX
  8
gg1
 10
0.300000
 20
0.000000
  0
VERTEX
  8
gg1
 10
0.300000
 20
0.500000
  0
SEQEND
  8
gg1
  0
POLYLINE
  8
gg1
 62
1
 40
0.000000
 41
0.000000
 66
  1
  0
VERTEX
  8
gg1
 10
0.000000
 20
0.000000
  0
VERTEX
  8
gg1
 10
0.300000
 20
0.000000
  0
SEQEND
  8
gg1
  0
POLYLINE
  8
gg1
 62
1
 40
0.000000
 41
0.000000
 66
  1
  0
VERTEX
  8
gg1
 10
0.000000
 20
0.000000
  0
VERTEX
  8
gg1
 10
0.000000
 20
0.500000
  0
VERTEX
  8
gg1
 10
0.300000
 20
0.500000
  0
SEQEND
  8
gg1
  0
POLYLINE
  8
gg1
 62
1
 40
0.000000
 41
0.000000
 66
  1
  0
VERTEX
  8
gg1
 10
-0.164000
 20
0.119000
  0
VERTEX
  8
gg1
 10
-0.164000
 20
0.079000
  0
VERTEX
  8
gg1
 10
-0.134000
 20
0.079000
  0
VERTEX
  8
gg1
 10
-0.144000
 20
0.099000
  0
VERTEX
  8
gg1
 10
-0.144000
 20
0.109000
  0
VERTEX
  8
gg1
 10
-0.134000
 20
0.119000
  0
VERTEX
  8
gg1
 10
-0.114000
 20
0.119000
  0
VERTEX
  8
gg1
 10
-0.104000
 20
0.109000
  0
VERTEX
  8
gg1
 10
-0.104000
 20
0.089000
  0
VERTEX
  8
gg1
 10
-0.114000
 20
0.079000
  0
SEQEND
  8
gg1
  0
POLYLINE
  8
gg1
 62
1
 40
0.000000
 41
0.000000
 66
  1
  0
VERTEX
  8
gg1
 10
-0.154000
 20
0.139000
  0
VERTEX
  8
gg1
 10
-0.164000
 20
0.149000
  0
VERTEX
  8
gg1
 10
-0.164000
 20
0.169000
  0
VERTEX
  8
gg1
 10
-0.154000
 20
0.179000
  0
VERTEX
  8
gg1
 10
-0.114000
 20
0.179000
  0
VERTEX
  8
gg1
 10
-0.104000
 20
0.169000
  0
VERTEX
  8
gg1
 10
-0.104000
 20
0.149000
  0
VERTEX
  8
gg1
 10
-0.114000
 20
0.139000
  0
VERTEX
  8
gg1
 10
-0.154000
 20
0.139000
  0
SEQEND
  8
gg1
  0
POLYLINE
  8
gg1
 62
1
 40
0.000000
 41
0.000000
 66
  1
  0
VERTEX
  8
gg1
 10
-0.154000
 20
0.199000
  0
VERTEX
  8
gg1
 10
-0.164000
 20
0.209000
  0
VERTEX
  8
gg1
 10
-0.164000
 20
0.229000
  0
VERTEX
  8
gg1
 10
-0.154000
 20
0.239000
  0
VERTEX
  8
gg1
 10
-0.114000
 20
0.239000
  0
VERTEX
  8
gg1
 10
-0.104000
 20
0.229000
  0
VERTEX
  8
gg1
 10
-0.104000
 20
0.209000
  0
VERTEX
  8
gg1
 10
-0.114000
 20
0.199000
  0
VERTEX
  8
gg1
 10
-0.154000
 20
0.199000
  0
SEQEND
  8
gg1
  0
POLYLINE
  8
gg1
 62
1
 40
0.000000
 41
0.000000
 66
  1
  0
VERTEX
  8
gg1
 10
-0.104000
 20
0.259000
  0
VERTEX
  8
gg1
 10
-0.144000
 20
0.259000
  0
VERTEX
  8
gg1
 10
-0.144000
 20
0.269000
  0
VERTEX
  8
gg1
 10
-0.134000
 20
0.279000
  0
VERTEX
  8
gg1
 10
-0.104000
 20
0.279000
  0
VERTEX
  8
gg1
 10
-0.134000
 20
0.279000
  0
VERTEX
  8
gg1
 10
-0.144000
 20
0.289000
  0
VERTEX
  8
gg1
 10
-0.134000
 20
0.299000
  0
VERTEX
  8
gg1
 10
-0.104000
 20
0.299000
  0
SEQEND
  8
gg1
  0
POLYLINE
  8
gg1
 62
1
 40
0.000000
 41
0.000000
 66
  1
  0
VERTEX
  8
gg1
 10
-0.104000
 20
0.319000
  0
VERTEX
  8
gg1
 10
-0.104000
 20
0.339000
  0
VERTEX
  8
gg1
 10
-0.104000
 20
0.329000
  0
VERTEX
  8
gg1
 10
-0.144000
 20
0.329000
  0
VERTEX
  8
gg1
 10
-0.144000
 20
0.319000
  0
SEQEND
  8
gg1
  0
POLYLINE
  8
gg1
 62
1
 40
0.000000
 41
0.000000
 66
  1
  0
VERTEX
  8
gg1
 10
-0.104000
 20
0.369000
  0
VERTEX
  8
gg1
 10
-0.104000
 20
0.388900
  0
VERTEX
  8
gg1
 10
-0.104000
 20
0.379000
  0
VERTEX
  8
gg1
 10
-0.164000
 20
0.379000
  0
VERTEX
  8
gg1
 10
-0.164000
 20
0.369000
  0
SEQEND
  8
gg1
  0
POLYLINE
  8
gg1
 62
1
 40
0.000000
 41
0.000000
 66
  1
  0
VERTEX
  8
gg1
 10
-0.021000
 20
-0.294000
  0
VERTEX
  8
gg1
 10
-0.011000
 20
-0.284000
  0
VERTEX
  8
gg1
 10
0.009000
 20
-0.284000
  0
VERTEX
  8
gg1
 10
0.019000
 20
-0.294000
  0
VERTEX
  8
gg1
 10
0.019000
 20
-0.304000
  0
VERTEX
  8
gg1
 10
0.009000
 20
-0.314000
  0
VERTEX
  8
gg1
 10
-0.001000
 20
-0.314000
  0
VERTEX
  8
gg1
 10
0.009000
 20
-0.314000
  0
VERTEX
  8
gg1
 10
0.019000
 20
-0.324000
  0
VERTEX
  8
gg1
 10
0.019000
 20
-0.334000
  0
VERTEX
  8
gg1
 10
0.009000
 20
-0.344000
  0
VERTEX
  8
gg1
 10
-0.011000
 20
-0.344000
  0
VERTEX
  8
gg1
 10
-0.021000
 20
-0.334000
  0
SEQEND
  8
gg1
  0
POLYLINE
  8
gg1
 62
1
 40
0.000000
 41
0.000000
 66
  1
  0
VERTEX
  8
gg1
 10
0.039000
 20
-0.294000
  0
VERTEX
  8
gg1
 10
0.049000
 20
-0.284000
  0
VERTEX
  8
gg1
 10
0.069000
 20
-0.284000
  0
VERTEX
  8
gg1
 10
0.079000
 20
-0.294000
  0
VERTEX
  8
gg1
 10
0.079000
 20
-0.334000
  0
VERTEX
  8
gg1
 10
0.069000
 20
-0.344000
  0
VERTEX
  8
gg1
 10
0.049000
 20
-0.344000
  0
VERTEX
  8
gg1
 10
0.039000
 20
-0.334000
  0
VERTEX
  8
gg1
 10
0.039000
 20
-0.294000
  0
SEQEND
  8
gg1
  0
POLYLINE
  8
gg1
 62
1
 40
0.000000
 41
0.000000
 66
  1
  0
VERTEX
  8
gg1
 10
0.099000
 20
-0.294000
  0
VERTEX
  8
gg1
 10
0.109000
 20
-0.284000
  0
VERTEX
  8
gg1
 10
0.129000
 20
-0.284000
  0
VERTEX
  8
gg1
 10
0.139000
 20
-0.294000
  0
VERTEX
  8
gg1
 10
0.139000
 20
-0.334000
  0
VERTEX
  8
gg1
 10
0.129000
 20
-0.344000
  0
VERTEX
  8
gg1
 10
0.109000
 20
-0.344000
  0
VERTEX
  8
gg1
 10
0.099000
 20
-0.334000
  0
VERTEX
  8
gg1
 10
0.099000
 20
-0.294000
  0
SEQEND
  8
gg1
  0
POLYLINE
  8
gg1
 62
1
 40
0.000000
 41
0.000000
 66
  1
  0
VERTEX
  8
gg1
 10
0.159000
 20
-0.344000
  0
VERTEX
  8
gg1
 10
0.159000
 20
-0.304000
  0
VERTEX
  8
gg1
 10
0.169000
 20
-0.304000
  0
VERTEX
  8
gg1
 10
0.179000
 20
-0.314000
  0
VERTEX
  8
gg1
 10
0.179000
 20
-0.344000
  0
VERTEX
  8
gg1
 10
0.179000
 20
-0.314000
  0
VERTEX
  8
gg1
 10
0.189000
 20
-0.304000
  0
VERTEX
  8
gg1
 10
0.199000
 20
-0.314000
  0
VERTEX
  8
gg1
 10
0.199000
 20
-0.344000
  0
SEQEND
  8
gg1
  0
POLYLINE
  8
gg1
 62
1
 40
0.000000
 41
0.000000
 66
  1
  0
VERTEX
  8
gg1
 10
0.219000
 20
-0.344000
  0
VERTEX
  8
gg1
 10
0.239000
 20
-0.344000
  0
VERTEX
  8
gg1
 10
0.229000
 20
-0.344000
  0
VERTEX
  8
gg1
 10
0.229000
 20
-0.304000
  0
VERTEX
  8
gg1
 10
0.219000
 20
-0.304000
  0
SEQEND
  8
gg1
  0
POLYLINE
  8
gg1
 62
1
 40
0.000000
 41
0.000000
 66
  1
  0
VERTEX
  8
gg1
 10
0.269000
 20
-0.344000
  0
VERTEX
  8
gg1
 10
0.288900
 20
-0.344000
  0
VERTEX
  8
gg1
 10
0.279000
 20
-0.344000
  0
VERTEX
  8
gg1
 10
0.279000
 20
-0.284000
  0
VERTEX
  8
gg1
 10
0.269000
 20
-0.284000
  0
SEQEND
  8
gg1
  0
POLYLINE
  8
gg1
 62
1
 40
0.000000
 41
0.000000
 66
  1
  0
VERTEX
  8
gg1
 10
0.107000
 20
0.415000
  0
VERTEX
  8
gg1
 10
0.193000
 20
0.415000
  0
SEQEND
  8
gg1
  0
POLYLINE
  8
gg1
 62
1
 40
0.000000
 41
0.000000
 66
  1
  0
VERTEX
  8
gg1
 10
0.150000
 20
0.372000
  0
VERTEX
  8
gg1
 10
0.150000
 20
0.458000
  0
SEQEND
  8
gg1
  0
POLYLINE
  8
gg1
 62
1
 40
0.000000
 41
0.000000
 66
  1
  0
VERTEX
  8
gg1
 10
0.230000
 20
0.050000
  0
VERTEX
  8
gg1
 10
0.270000
 20
0.050000
  0
SEQEND
  8
gg1
  0
POLYLINE
  8
gg1
 62
1
 40
0.000000
 41
0.000000
 66
  1
  0
VERTEX
  8
gg1
 10
0.250000
 20
0.030000
  0
VERTEX
  8
gg1
 10
0.250000
 20
0.070000
  0
SEQEND
  8
gg1
  0
POLYLINE
  8
gg1
 62
1
 40
0.000000
 41
0.000000
 66
  1
  0
VERTEX
  8
gg1
 10
0.130000
 20
0.050000
  0
VERTEX
  8
gg1
 10
0.170000
 20
0.050000
  0
SEQEND
  8
gg1
  0
POLYLINE
  8
gg1
 62
1
 40
0.000000
 41
0.000000
 66
  1
  0
VERTEX
  8
gg1
 10
0.150000
 20
0.030000
  0
VERTEX
  8
gg1
 10
0.150000
 20
0.070000
  0
SEQEND
  8
gg1
  0
POLYLINE
  8
gg1
 62
1
 40
0.000000
 41
0.000000
 66
  1
  0
VERTEX
  8
gg1
 10
0.030000
 20
0.050000
  0
VERTEX
  8
gg1
 10
0.070000
 20
0.050000
  0
SEQEND
  8
gg1
  0
POLYLINE
  8
gg1
 62
1
 40
0.000000
 41
0.000000
 66
  1
  0
VERTEX
  8
gg1
 10
0.050000
 20
0.030000
  0
VERTEX
  8
gg1
 10
0.050000
 20
0.070000
  0
SEQEND
  8
gg1
  0
POLYLINE
  8
gg1
 62
1
 40
0.000000
 41
0.000000
 66
  1
  0
VERTEX
  8
gg1
 10
0.105000
 20
0.225000
  0
VERTEX
  8
gg1
 10
0.125000
 20
0.225000
  0
SEQEND
  8
gg1
  0
POLYLINE
  8
gg1
 62
1
 40
0.000000
 41
0.000000
 66
  1
  0
VERTEX
  8
gg1
 10
0.115000
 20
0.215000
  0
VERTEX
  8
gg1
 10
0.115000
 20
0.235000
  0
SEQEND
  8
gg1
  0
ENDSEC
  0
EOF
