  0
SECTION
  2
HEADER
  9
$EXTMIN
 10
-0.212000
 20
-0.221000
  9
$EXTMAX
 10
0.755000
 20
0.777000
  9
$LIMMIN
 10
-0.212000
 20
-0.221000
  9
$LIMMAX
 10
0.755000
 20
0.777000
  9
$FILLMODE
 70
  1
  0
ENDSEC
  0
SECTION
  2
TABLES
  0
TABLE
  2
LTYPE
 70
  1
  0
LTYPE
  2
CONTINUOUS
 70
 64
  3
Solid line
 72
 65
 73
  0
 40
0.0
  0
ENDTAB
  0
TABLE
  2
LAYER
 70
 1
  0
LAYER
  2
0
 70
  0
 62
7
  6
CONTINUOUS
  0
LAYER
  2
gg1
 70
  0
 62
1
  6
CONTINUOUS
  0
ENDTAB
  0
TABLE
  2
STYLE
 70
  1
  0
STYLE
  2
STANDARD
 70
  0
 40
0.0
 41
1.0
 50
0.0
 71
  0
 42
0.2
  3
txt
  4

  0
ENDTAB
  0
ENDSEC
  0
SECTION
  2
BLOCKS
  0
BLOCK
  8
0
  2
D10
 70
64
 10
0.0
 20
0.0
  3
D10
  0
CIRCLE
  8
0
 10
0.000000
 20
0.000000
 40
0.005000
 0
ENDBLK
  8
0
  0
BLOCK
  8
0
  2
D11
 70
64
 10
0.0
 20
0.0
  3
D11
  0
CIRCLE
  8
0
 10
0.000000
 20
0.000000
 40
0.003000
 0
ENDBLK
  8
0
  0
BLOCK
  8
0
  2
D12
 70
64
 10
0.0
 20
0.0
  3
D12
  0
CIRCLE
  8
0
 10
0.000000
 20
0.000000
 40
0.002500
 0
ENDBLK
  8
0
  0
ENDSEC
  0
SECTION
  2
ENTITIES
  0
POLYLINE
  8
gg1
 62
1
 40
0.000000
 41
0.000000
 66
  1
  0
VERTEX
  8
gg1
 10
0.750000
 20
-0.192500
  0
VERTEX
  8
gg1
 10
0.750000
 20
-0.017500
  0
SEQEND
  8
gg1
  0
POLYLINE
  8
gg1
 62
1
 40
0.000000
 41
0.000000
 66
  1
  0
VERTEX
  8
gg1
 10
0.000000
 20
-0.192500
  0
VERTEX
  8
gg1
 10
0.000000
 20
-0.017500
  0
SEQEND
  8
gg1
  0
POLYLINE
  8
gg1
 62
1
 40
0.000000
 41
0.000000
 66
  1
  0
VERTEX
  8
gg1
 10
0.530000
 20
-0.182500
  0
VERTEX
  8
gg1
 10
0.750000
 20
-0.182500
  0
SEQEND
  8
gg1
  0
POLYLINE
  8
gg1
 62
1
 40
0.000000
 41
0.000000
 66
  1
  0
VERTEX
  8
gg1
 10
0.000000
 20
-0.182500
  0
VERTEX
  8
gg1
 10
0.188100
 20
-0.182500
  0
SEQEND
  8
gg1
  0
POLYLINE
  8
gg1
 62
1
 40
0.000000
 41
0.000000
 66
  1
  0
VERTEX
  8
gg1
 10
0.690000
 20
-0.162500
  0
VERTEX
  8
gg1
 10
0.750000
 20
-0.182500
  0
SEQEND
  8
gg1
  0
POLYLINE
  8
gg1
 62
1
 40
0.000000
 41
0.000000
 66
  1
  0
VERTEX
  8
gg1
 10
0.690000
 20
-0.202500
  0
VERTEX
  8
gg1
 10
0.750000
 20
-0.182500
  0
SEQEND
  8
gg1
  0
POLYLINE
  8
gg1
 62
1
 40
0.000000
 41
0.000000
 66
  1
  0
VERTEX
  8
gg1
 10
0.000000
 20
-0.182500
  0
VERTEX
  8
gg1
 10
0.060000
 20
-0.202500
  0
SEQEND
  8
gg1
  0
POLYLINE
  8
gg1
 62
1
 40
0.000000
 41
0.000000
 66
  1
  0
VERTEX
  8
gg1
 10
0.000000
 20
-0.182500
  0
VERTEX
  8
gg1
 10
0.060000
 20
-0.162500
  0
SEQEND
  8
gg1
  0
POLYLINE
  8
gg1
 62
1
 40
0.000000
 41
0.000000
 66
  1
  0
VERTEX
  8
gg1
 10
-0.195000
 20
-0.002500
  0
VERTEX
  8
gg1
 10
-0.010000
 20
-0.002500
  0
SEQEND
  8
gg1
  0
POLYLINE
  8
gg1
 62
1
 40
0.000000
 41
0.000000
 66
  1
  0
VERTEX
  8
gg1
 10
-0.195000
 20
0.772500
  0
VERTEX
  8
gg1
 10
-0.010000
 20
0.772500
  0
SEQEND
  8
gg1
  0
POLYLINE
  8
gg1
 62
1
 40
0.000000
 41
0.000000
 66
  1
  0
VERTEX
  8
gg1
 10
-0.185000
 20
-0.002500
  0
VERTEX
  8
gg1
 10
-0.185000
 20
0.198000
  0
SEQEND
  8
gg1
  0
POLYLINE
  8
gg1
 62
1
 40
0.000000
 41
0.000000
 66
  1
  0
VERTEX
  8
gg1
 10
-0.185000
 20
0.539900
  0
VERTEX
  8
gg1
 10
-0.185000
 20
0.772500
  0
SEQEND
  8
gg1
  0
POLYLINE
  8
gg1
 62
1
 40
0.000000
 41
0.000000
 66
  1
  0
VERTEX
  8
gg1
 10
-0.185000
 20
-0.002500
  0
VERTEX
  8
gg1
 10
-0.165000
 20
0.057500
  0
SEQEND
  8
gg1
  0
POLYLINE
  8
gg1
 62
1
 40
0.000000
 41
0.000000
 66
  1
  0
VERTEX
  8
gg1
 10
-0.205000
 20
0.057500
  0
VERTEX
  8
gg1
 10
-0.185000
 20
-0.002500
  0
SEQEND
  8
gg1
  0
POLYLINE
  8
gg1
 62
1
 40
0.000000
 41
0.000000
 66
  1
  0
VERTEX
  8
gg1
 10
-0.205000
 20
0.712500
  0
VERTEX
  8
gg1
 10
-0.185000
 20
0.772500
  0
VERTEX
  8
gg1
 10
-0.165000
 20
0.712500
  0
SEQEND
  8
gg1
  0
POLYLINE
  8
gg1
 62
1
 40
0.000000
 41
0.000000
 66
  1
  0
VERTEX
  8
gg1
 10
0.000000
 20
-0.002500
  0
VERTEX
  8
gg1
 10
0.750000
 20
-0.002500
  0
SEQEND
  8
gg1
  0
POLYLINE
  8
gg1
 62
1
 40
0.000000
 41
0.000000
 66
  1
  0
VERTEX
  8
gg1
 10
0.000000
 20
0.772500
  0
VERTEX
  8
gg1
 10
0.750000
 20
0.772500
  0
SEQEND
  8
gg1
  0
POLYLINE
  8
gg1
 62
1
 40
0.000000
 41
0.000000
 66
  1
  0
VERTEX
  8
gg1
 10
0.750000
 20
-0.002500
  0
VERTEX
  8
gg1
 10
0.750000
 20
0.772500
  0
SEQEND
  8
gg1
  0
POLYLINE
  8
gg1
 62
1
 40
0.000000
 41
0.000000
 66
  1
  0
VERTEX
  8
gg1
 10
0.000000
 20
-0.002500
  0
VERTEX
  8
gg1
 10
0.000000
 20
0.772500
  0
SEQEND
  8
gg1
  0
POLYLINE
  8
gg1
 62
1
 40
0.000000
 41
0.000000
 66
  1
  0
VERTEX
  8
gg1
 10
0.204100
 20
-0.158500
  0
VERTEX
  8
gg1
 10
0.244000
 20
-0.158500
  0
VERTEX
  8
gg1
 10
0.244000
 20
-0.168500
  0
VERTEX
  8
gg1
 10
0.204100
 20
-0.208500
  0
VERTEX
  8
gg1
 10
0.204100
 20
-0.218500
  0
SEQEND
  8
gg1
  0
POLYLINE
  8
gg1
 62
1
 40
0.000000
 41
0.000000
 66
  1
  0
VERTEX
  8
gg1
 10
0.304000
 20
-0.158500
  0
VERTEX
  8
gg1
 10
0.264000
 20
-0.158500
  0
VERTEX
  8
gg1
 10
0.264000
 20
-0.188500
  0
VERTEX
  8
gg1
 10
0.284000
 20
-0.178500
  0
VERTEX
  8
gg1
 10
0.294000
 20
-0.178500
  0
VERTEX
  8
gg1
 10
0.304000
 20
-0.188500
  0
VERTEX
  8
gg1
 10
0.304000
 20
-0.208500
  0
VERTEX
  8
gg1
 10
0.294000
 20
-0.218500
  0
VERTEX
  8
gg1
 10
0.274000
 20
-0.218500
  0
VERTEX
  8
gg1
 10
0.264000
 20
-0.208500
  0
SEQEND
  8
gg1
  0
POLYLINE
  8
gg1
 62
1
 40
0.000000
 41
0.000000
 66
  1
  0
VERTEX
  8
gg1
 10
0.324000
 20
-0.168500
  0
VERTEX
  8
gg1
 10
0.334000
 20
-0.158500
  0
VERTEX
  8
gg1
 10
0.354000
 20
-0.158500
  0
VERTEX
  8
gg1
 10
0.364000
 20
-0.168500
  0
VERTEX
  8
gg1
 10
0.364000
 20
-0.208500
  0
VERTEX
  8
gg1
 10
0.354000
 20
-0.218500
  0
VERTEX
  8
gg1
 10
0.334000
 20
-0.218500
  0
VERTEX
  8
gg1
 10
0.324000
 20
-0.208500
  0
VERTEX
  8
gg1
 10
0.324000
 20
-0.168500
  0
SEQEND
  8
gg1
  0
POLYLINE
  8
gg1
 62
1
 40
0.000000
 41
0.000000
 66
  1
  0
VERTEX
  8
gg1
 10
0.384000
 20
-0.218500
  0
VERTEX
  8
gg1
 10
0.384000
 20
-0.178500
  0
VERTEX
  8
gg1
 10
0.394000
 20
-0.178500
  0
VERTEX
  8
gg1
 10
0.404000
 20
-0.188500
  0
VERTEX
  8
gg1
 10
0.404000
 20
-0.218500
  0
VERTEX
  8
gg1
 10
0.404000
 20
-0.188500
  0
VERTEX
  8
gg1
 10
0.414000
 20
-0.178500
  0
VERTEX
  8
gg1
 10
0.424000
 20
-0.188500
  0
VERTEX
  8
gg1
 10
0.424000
 20
-0.218500
  0
SEQEND
  8
gg1
  0
POLYLINE
  8
gg1
 62
1
 40
0.000000
 41
0.000000
 66
  1
  0
VERTEX
  8
gg1
 10
0.444000
 20
-0.218500
  0
VERTEX
  8
gg1
 10
0.464000
 20
-0.218500
  0
VERTEX
  8
gg1
 10
0.454000
 20
-0.218500
  0
VERTEX
  8
gg1
 10
0.454000
 20
-0.178500
  0
VERTEX
  8
gg1
 10
0.444000
 20
-0.178500
  0
SEQEND
  8
gg1
  0
POLYLINE
  8
gg1
 62
1
 40
0.000000
 41
0.000000
 66
  1
  0
VERTEX
  8
gg1
 10
0.494000
 20
-0.218500
  0
VERTEX
  8
gg1
 10
0.513900
 20
-0.218500
  0
VERTEX
  8
gg1
 10
0.504000
 20
-0.218500
  0
VERTEX
  8
gg1
 10
0.504000
 20
-0.158500
  0
VERTEX
  8
gg1
 10
0.494000
 20
-0.158500
  0
SEQEND
  8
gg1
  0
POLYLINE
  8
gg1
 62
1
 40
0.000000
 41
0.000000
 66
  1
  0
VERTEX
  8
gg1
 10
-0.209000
 20
0.214000
  0
VERTEX
  8
gg1
 10
-0.209000
 20
0.254000
  0
VERTEX
  8
gg1
 10
-0.199000
 20
0.254000
  0
VERTEX
  8
gg1
 10
-0.159000
 20
0.214000
  0
VERTEX
  8
gg1
 10
-0.149000
 20
0.214000
  0
SEQEND
  8
gg1
  0
POLYLINE
  8
gg1
 62
1
 40
0.000000
 41
0.000000
 66
  1
  0
VERTEX
  8
gg1
 10
-0.209000
 20
0.274000
  0
VERTEX
  8
gg1
 10
-0.209000
 20
0.314000
  0
VERTEX
  8
gg1
 10
-0.199000
 20
0.314000
  0
VERTEX
  8
gg1
 10
-0.159000
 20
0.274000
  0
VERTEX
  8
gg1
 10
-0.149000
 20
0.274000
  0
SEQEND
  8
gg1
  0
POLYLINE
  8
gg1
 62
1
 40
0.000000
 41
0.000000
 66
  1
  0
VERTEX
  8
gg1
 10
-0.209000
 20
0.374000
  0
VERTEX
  8
gg1
 10
-0.209000
 20
0.334000
  0
VERTEX
  8
gg1
 10
-0.179000
 20
0.334000
  0
VERTEX
  8
gg1
 10
-0.189000
 20
0.354000
  0
VERTEX
  8
gg1
 10
-0.189000
 20
0.364000
  0
VERTEX
  8
gg1
 10
-0.179000
 20
0.374000
  0
VERTEX
  8
gg1
 10
-0.159000
 20
0.374000
  0
VERTEX
  8
gg1
 10
-0.149000
 20
0.364000
  0
VERTEX
  8
gg1
 10
-0.149000
 20
0.344000
  0
VERTEX
  8
gg1
 10
-0.159000
 20
0.334000
  0
SEQEND
  8
gg1
  0
POLYLINE
  8
gg1
 62
1
 40
0.000000
 41
0.000000
 66
  1
  0
VERTEX
  8
gg1
 10
-0.149000
 20
0.394000
  0
VERTEX
  8
gg1
 10
-0.189000
 20
0.394000
  0
VERTEX
  8
gg1
 10
-0.189000
 20
0.404000
  0
VERTEX
  8
gg1
 10
-0.179000
 20
0.414000
  0
VERTEX
  8
gg1
 10
-0.149000
 20
0.414000
  0
VERTEX
  8
gg1
 10
-0.179000
 20
0.414000
  0
VERTEX
  8
gg1
 10
-0.189000
 20
0.424000
  0
VERTEX
  8
gg1
 10
-0.179000
 20
0.433900
  0
VERTEX
  8
gg1
 10
-0.149000
 20
0.433900
  0
SEQEND
  8
gg1
  0
POLYLINE
  8
gg1
 62
1
 40
0.000000
 41
0.000000
 66
  1
  0
VERTEX
  8
gg1
 10
-0.149000
 20
0.453900
  0
VERTEX
  8
gg1
 10
-0.149000
 20
0.473900
  0
VERTEX
  8
gg1
 10
-0.149000
 20
0.463900
  0
VERTEX
  8
gg1
 10
-0.189000
 20
0.463900
  0
VERTEX
  8
gg1
 10
-0.189000
 20
0.453900
  0
SEQEND
  8
gg1
  0
POLYLINE
  8
gg1
 62
1
 40
0.000000
 41
0.000000
 66
  1
  0
VERTEX
  8
gg1
 10
-0.149000
 20
0.503900
  0
VERTEX
  8
gg1
 10
-0.149000
 20
0.523900
  0
VERTEX
  8
gg1
 10
-0.149000
 20
0.513900
  0
VERTEX
  8
gg1
 10
-0.209000
 20
0.513900
  0
VERTEX
  8
gg1
 10
-0.209000
 20
0.503900
  0
SEQEND
  8
gg1
  0
POLYLINE
  8
gg1
 62
1
 40
0.000000
 41
0.000000
 66
  1
  0
VERTEX
  8
gg1
 10
0.105000
 20
0.181500
  0
VERTEX
  8
gg1
 10
0.145000
 20
0.181500
  0
SEQEND
  8
gg1
  0
POLYLINE
  8
gg1
 62
1
 40
0.000000
 41
0.000000
 66
  1
  0
VERTEX
  8
gg1
 10
0.125000
 20
0.161500
  0
VERTEX
  8
gg1
 10
0.125000
 20
0.201500
  0
SEQEND
  8
gg1
  0
POLYLINE
  8
gg1
 62
1
 40
0.000000
 41
0.000000
 66
  1
  0
VERTEX
  8
gg1
 10
0.605000
 20
0.181500
  0
VERTEX
  8
gg1
 10
0.645000
 20
0.181500
  0
SEQEND
  8
gg1
  0
POLYLINE
  8
gg1
 62
1
 40
0.000000
 41
0.000000
 66
  1
  0
VERTEX
  8
gg1
 10
0.625000
 20
0.161500
  0
VERTEX
  8
gg1
 10
0.625000
 20
0.201500
  0
SEQEND
  8
gg1
  0
POLYLINE
  8
gg1
 62
1
 40
0.000000
 41
0.000000
 66
  1
  0
VERTEX
  8
gg1
 10
0.505000
 20
0.181500
  0
VERTEX
  8
gg1
 10
0.545000
 20
0.181500
  0
SEQEND
  8
gg1
  0
POLYLINE
  8
gg1
 62
1
 40
0.000000
 41
0.000000
 66
  1
  0
VERTEX
  8
gg1
 10
0.525000
 20
0.161500
  0
VERTEX
  8
gg1
 10
0.525000
 20
0.201500
  0
SEQEND
  8
gg1
  0
POLYLINE
  8
gg1
 62
1
 40
0.000000
 41
0.000000
 66
  1
  0
VERTEX
  8
gg1
 10
0.405000
 20
0.181500
  0
VERTEX
  8
gg1
 10
0.445000
 20
0.181500
  0
SEQEND
  8
gg1
  0
POLYLINE
  8
gg1
 62
1
 40
0.000000
 41
0.000000
 66
  1
  0
VERTEX
  8
gg1
 10
0.425000
 20
0.161500
  0
VERTEX
  8
gg1
 10
0.425000
 20
0.201500
  0
SEQEND
  8
gg1
  0
POLYLINE
  8
gg1
 62
1
 40
0.000000
 41
0.000000
 66
  1
  0
VERTEX
  8
gg1
 10
0.305000
 20
0.181500
  0
VERTEX
  8
gg1
 10
0.345000
 20
0.181500
  0
SEQEND
  8
gg1
  0
POLYLINE
  8
gg1
 62
1
 40
0.000000
 41
0.000000
 66
  1
  0
VERTEX
  8
gg1
 10
0.325000
 20
0.161500
  0
VERTEX
  8
gg1
 10
0.325000
 20
0.201500
  0
SEQEND
  8
gg1
  0
POLYLINE
  8
gg1
 62
1
 40
0.000000
 41
0.000000
 66
  1
  0
VERTEX
  8
gg1
 10
0.205000
 20
0.181500
  0
VERTEX
  8
gg1
 10
0.245000
 20
0.181500
  0
SEQEND
  8
gg1
  0
POLYLINE
  8
gg1
 62
1
 40
0.000000
 41
0.000000
 66
  1
  0
VERTEX
  8
gg1
 10
0.225000
 20
0.161500
  0
VERTEX
  8
gg1
 10
0.225000
 20
0.201500
  0
SEQEND
  8
gg1
  0
POLYLINE
  8
gg1
 62
1
 40
0.000000
 41
0.000000
 66
  1
  0
VERTEX
  8
gg1
 10
0.263100
 20
0.074900
  0
VERTEX
  8
gg1
 10
0.349100
 20
0.074900
  0
SEQEND
  8
gg1
  0
POLYLINE
  8
gg1
 62
1
 40
0.000000
 41
0.000000
 66
  1
  0
VERTEX
  8
gg1
 10
0.306100
 20
0.031900
  0
VERTEX
  8
gg1
 10
0.306100
 20
0.117900
  0
SEQEND
  8
gg1
  0
POLYLINE
  8
gg1
 62
1
 40
0.000000
 41
0.000000
 66
  1
  0
VERTEX
  8
gg1
 10
0.125300
 20
0.074900
  0
VERTEX
  8
gg1
 10
0.211300
 20
0.074900
  0
SEQEND
  8
gg1
  0
POLYLINE
  8
gg1
 62
1
 40
0.000000
 41
0.000000
 66
  1
  0
VERTEX
  8
gg1
 10
0.168300
 20
0.031900
  0
VERTEX
  8
gg1
 10
0.168300
 20
0.117900
  0
SEQEND
  8
gg1
  0
POLYLINE
  8
gg1
 62
1
 40
0.000000
 41
0.000000
 66
  1
  0
VERTEX
  8
gg1
 10
0.538700
 20
0.074900
  0
VERTEX
  8
gg1
 10
0.624700
 20
0.074900
  0
SEQEND
  8
gg1
  0
POLYLINE
  8
gg1
 62
1
 40
0.000000
 41
0.000000
 66
  1
  0
VERTEX
  8
gg1
 10
0.581700
 20
0.031900
  0
VERTEX
  8
gg1
 10
0.581700
 20
0.117900
  0
SEQEND
  8
gg1
  0
POLYLINE
  8
gg1
 62
1
 40
0.000000
 41
0.000000
 66
  1
  0
VERTEX
  8
gg1
 10
0.400900
 20
0.074900
  0
VERTEX
  8
gg1
 10
0.486900
 20
0.074900
  0
SEQEND
  8
gg1
  0
POLYLINE
  8
gg1
 62
1
 40
0.000000
 41
0.000000
 66
  1
  0
VERTEX
  8
gg1
 10
0.443900
 20
0.031900
  0
VERTEX
  8
gg1
 10
0.443900
 20
0.117900
  0
SEQEND
  8
gg1
  0
POLYLINE
  8
gg1
 62
1
 40
0.000000
 41
0.000000
 66
  1
  0
VERTEX
  8
gg1
 10
0.263100
 20
0.695000
  0
VERTEX
  8
gg1
 10
0.349100
 20
0.695000
  0
SEQEND
  8
gg1
  0
POLYLINE
  8
gg1
 62
1
 40
0.000000
 41
0.000000
 66
  1
  0
VERTEX
  8
gg1
 10
0.306100
 20
0.652000
  0
VERTEX
  8
gg1
 10
0.306100
 20
0.738000
  0
SEQEND
  8
gg1
  0
POLYLINE
  8
gg1
 62
1
 40
0.000000
 41
0.000000
 66
  1
  0
VERTEX
  8
gg1
 10
0.125300
 20
0.695000
  0
VERTEX
  8
gg1
 10
0.211300
 20
0.695000
  0
SEQEND
  8
gg1
  0
POLYLINE
  8
gg1
 62
1
 40
0.000000
 41
0.000000
 66
  1
  0
VERTEX
  8
gg1
 10
0.168300
 20
0.652000
  0
VERTEX
  8
gg1
 10
0.168300
 20
0.738000
  0
SEQEND
  8
gg1
  0
POLYLINE
  8
gg1
 62
1
 40
0.000000
 41
0.000000
 66
  1
  0
VERTEX
  8
gg1
 10
0.505000
 20
0.681500
  0
VERTEX
  8
gg1
 10
0.545000
 20
0.681500
  0
SEQEND
  8
gg1
  0
POLYLINE
  8
gg1
 62
1
 40
0.000000
 41
0.000000
 66
  1
  0
VERTEX
  8
gg1
 10
0.525000
 20
0.661500
  0
VERTEX
  8
gg1
 10
0.525000
 20
0.701500
  0
SEQEND
  8
gg1
  0
POLYLINE
  8
gg1
 62
1
 40
0.000000
 41
0.000000
 66
  1
  0
VERTEX
  8
gg1
 10
0.405000
 20
0.681500
  0
VERTEX
  8
gg1
 10
0.445000
 20
0.681500
  0
SEQEND
  8
gg1
  0
POLYLINE
  8
gg1
 62
1
 40
0.000000
 41
0.000000
 66
  1
  0
VERTEX
  8
gg1
 10
0.425000
 20
0.661500
  0
VERTEX
  8
gg1
 10
0.425000
 20
0.701500
  0
SEQEND
  8
gg1
  0
ENDSEC
  0
EOF
