  0
SECTION
  2
HEADER
  9
$EXTMIN
 10
7.373000
 20
14.861000
  9
$EXTMAX
 10
8.105000
 20
16.005000
  9
$LIMMIN
 10
7.373000
 20
14.861000
  9
$LIMMAX
 10
8.105000
 20
16.005000
  9
$FILLMODE
 70
  1
  0
ENDSEC
  0
SECTION
  2
TABLES
  0
TABLE
  2
LTYPE
 70
  1
  0
LTYPE
  2
CONTINUOUS
 70
 64
  3
Solid line
 72
 65
 73
  0
 40
0.0
  0
ENDTAB
  0
TABLE
  2
LAYER
 70
 1
  0
LAYER
  2
0
 70
  0
 62
7
  6
CONTINUOUS
  0
LAYER
  2
gg1
 70
  0
 62
1
  6
CONTINUOUS
  0
ENDTAB
  0
TABLE
  2
STYLE
 70
  1
  0
STYLE
  2
STANDARD
 70
  0
 40
0.0
 41
1.0
 50
0.0
 71
  0
 42
0.2
  3
txt
  4

  0
ENDTAB
  0
ENDSEC
  0
SECTION
  2
BLOCKS
  0
BLOCK
  8
0
  2
D10
 70
64
 10
0.0
 20
0.0
  3
D10
  0
CIRCLE
  8
0
 10
0.000000
 20
0.000000
 40
0.002500
 0
ENDBLK
  8
0
  0
BLOCK
  8
0
  2
D11
 70
64
 10
0.0
 20
0.0
  3
D11
  0
CIRCLE
  8
0
 10
0.000000
 20
0.000000
 40
0.005000
 0
ENDBLK
  8
0
  0
BLOCK
  8
0
  2
D12
 70
64
 10
0.0
 20
0.0
  3
D12
  0
CIRCLE
  8
0
 10
0.000000
 20
0.000000
 40
0.003000
 0
ENDBLK
  8
0
  0
ENDSEC
  0
SECTION
  2
ENTITIES
  0
POLYLINE
  8
gg1
 62
1
 40
0.000000
 41
0.000000
 66
  1
  0
VERTEX
  8
gg1
 10
7.500000
 20
15.000000
  0
VERTEX
  8
gg1
 10
8.100000
 20
15.000000
  0
VERTEX
  8
gg1
 10
8.100000
 20
16.000000
  0
SEQEND
  8
gg1
  0
POLYLINE
  8
gg1
 62
1
 40
0.000000
 41
0.000000
 66
  1
  0
VERTEX
  8
gg1
 10
7.500000
 20
16.000000
  0
VERTEX
  8
gg1
 10
8.100000
 20
16.000000
  0
SEQEND
  8
gg1
  0
POLYLINE
  8
gg1
 62
1
 40
0.000000
 41
0.000000
 66
  1
  0
VERTEX
  8
gg1
 10
7.500000
 20
15.000000
  0
VERTEX
  8
gg1
 10
7.500000
 20
16.000000
  0
SEQEND
  8
gg1
  0
POLYLINE
  8
gg1
 62
1
 40
0.000000
 41
0.000000
 66
  1
  0
VERTEX
  8
gg1
 10
7.840000
 20
15.280000
  0
VERTEX
  8
gg1
 10
7.860000
 20
15.280000
  0
SEQEND
  8
gg1
  0
POLYLINE
  8
gg1
 62
1
 40
0.000000
 41
0.000000
 66
  1
  0
VERTEX
  8
gg1
 10
7.850000
 20
15.270000
  0
VERTEX
  8
gg1
 10
7.850000
 20
15.290000
  0
SEQEND
  8
gg1
  0
POLYLINE
  8
gg1
 62
1
 40
0.000000
 41
0.000000
 66
  1
  0
VERTEX
  8
gg1
 10
7.972000
 20
15.915000
  0
VERTEX
  8
gg1
 10
8.058000
 20
15.915000
  0
SEQEND
  8
gg1
  0
POLYLINE
  8
gg1
 62
1
 40
0.000000
 41
0.000000
 66
  1
  0
VERTEX
  8
gg1
 10
8.015000
 20
15.872000
  0
VERTEX
  8
gg1
 10
8.015000
 20
15.958000
  0
SEQEND
  8
gg1
  0
POLYLINE
  8
gg1
 62
1
 40
0.000000
 41
0.000000
 66
  1
  0
VERTEX
  8
gg1
 10
7.530000
 20
15.050000
  0
VERTEX
  8
gg1
 10
7.570000
 20
15.050000
  0
SEQEND
  8
gg1
  0
POLYLINE
  8
gg1
 62
1
 40
0.000000
 41
0.000000
 66
  1
  0
VERTEX
  8
gg1
 10
7.550000
 20
15.030000
  0
VERTEX
  8
gg1
 10
7.550000
 20
15.070000
  0
SEQEND
  8
gg1
  0
POLYLINE
  8
gg1
 62
1
 40
0.000000
 41
0.000000
 66
  1
  0
VERTEX
  8
gg1
 10
7.630000
 20
15.050000
  0
VERTEX
  8
gg1
 10
7.670000
 20
15.050000
  0
SEQEND
  8
gg1
  0
POLYLINE
  8
gg1
 62
1
 40
0.000000
 41
0.000000
 66
  1
  0
VERTEX
  8
gg1
 10
7.650000
 20
15.030000
  0
VERTEX
  8
gg1
 10
7.650000
 20
15.070000
  0
SEQEND
  8
gg1
  0
POLYLINE
  8
gg1
 62
1
 40
0.000000
 41
0.000000
 66
  1
  0
VERTEX
  8
gg1
 10
7.730000
 20
15.050000
  0
VERTEX
  8
gg1
 10
7.770000
 20
15.050000
  0
SEQEND
  8
gg1
  0
POLYLINE
  8
gg1
 62
1
 40
0.000000
 41
0.000000
 66
  1
  0
VERTEX
  8
gg1
 10
7.750000
 20
15.030000
  0
VERTEX
  8
gg1
 10
7.750000
 20
15.070000
  0
SEQEND
  8
gg1
  0
POLYLINE
  8
gg1
 62
1
 40
0.000000
 41
0.000000
 66
  1
  0
VERTEX
  8
gg1
 10
7.830000
 20
15.050000
  0
VERTEX
  8
gg1
 10
7.870000
 20
15.050000
  0
SEQEND
  8
gg1
  0
POLYLINE
  8
gg1
 62
1
 40
0.000000
 41
0.000000
 66
  1
  0
VERTEX
  8
gg1
 10
7.850000
 20
15.030000
  0
VERTEX
  8
gg1
 10
7.850000
 20
15.070000
  0
SEQEND
  8
gg1
  0
POLYLINE
  8
gg1
 62
1
 40
0.000000
 41
0.000000
 66
  1
  0
VERTEX
  8
gg1
 10
7.930000
 20
15.050000
  0
VERTEX
  8
gg1
 10
7.970000
 20
15.050000
  0
SEQEND
  8
gg1
  0
POLYLINE
  8
gg1
 62
1
 40
0.000000
 41
0.000000
 66
  1
  0
VERTEX
  8
gg1
 10
7.950000
 20
15.030000
  0
VERTEX
  8
gg1
 10
7.950000
 20
15.070000
  0
SEQEND
  8
gg1
  0
POLYLINE
  8
gg1
 62
1
 40
0.000000
 41
0.000000
 66
  1
  0
VERTEX
  8
gg1
 10
8.030000
 20
15.050000
  0
VERTEX
  8
gg1
 10
8.070000
 20
15.050000
  0
SEQEND
  8
gg1
  0
POLYLINE
  8
gg1
 62
1
 40
0.000000
 41
0.000000
 66
  1
  0
VERTEX
  8
gg1
 10
8.050000
 20
15.030000
  0
VERTEX
  8
gg1
 10
8.050000
 20
15.070000
  0
SEQEND
  8
gg1
  0
POLYLINE
  8
gg1
 62
1
 40
0.000000
 41
0.000000
 66
  1
  0
VERTEX
  8
gg1
 10
7.380000
 20
15.060000
  0
VERTEX
  8
gg1
 10
7.400000
 20
15.000000
  0
VERTEX
  8
gg1
 10
7.420000
 20
15.060000
  0
SEQEND
  8
gg1
  0
POLYLINE
  8
gg1
 62
1
 40
0.000000
 41
0.000000
 66
  1
  0
VERTEX
  8
gg1
 10
7.400000
 20
16.000000
  0
VERTEX
  8
gg1
 10
7.420000
 20
15.940000
  0
SEQEND
  8
gg1
  0
POLYLINE
  8
gg1
 62
1
 40
0.000000
 41
0.000000
 66
  1
  0
VERTEX
  8
gg1
 10
7.380000
 20
15.940000
  0
VERTEX
  8
gg1
 10
7.400000
 20
16.000000
  0
SEQEND
  8
gg1
  0
POLYLINE
  8
gg1
 62
1
 40
0.000000
 41
0.000000
 66
  1
  0
VERTEX
  8
gg1
 10
7.400000
 20
15.000000
  0
VERTEX
  8
gg1
 10
7.400000
 20
15.288100
  0
SEQEND
  8
gg1
  0
POLYLINE
  8
gg1
 62
1
 40
0.000000
 41
0.000000
 66
  1
  0
VERTEX
  8
gg1
 10
7.400000
 20
15.679900
  0
VERTEX
  8
gg1
 10
7.400000
 20
16.000000
  0
SEQEND
  8
gg1
  0
POLYLINE
  8
gg1
 62
1
 40
0.000000
 41
0.000000
 66
  1
  0
VERTEX
  8
gg1
 10
7.390000
 20
15.000000
  0
VERTEX
  8
gg1
 10
7.487500
 20
15.000000
  0
SEQEND
  8
gg1
  0
POLYLINE
  8
gg1
 62
1
 40
0.000000
 41
0.000000
 66
  1
  0
VERTEX
  8
gg1
 10
7.390000
 20
16.000000
  0
VERTEX
  8
gg1
 10
7.487500
 20
16.000000
  0
SEQEND
  8
gg1
  0
POLYLINE
  8
gg1
 62
1
 40
0.000000
 41
0.000000
 66
  1
  0
VERTEX
  8
gg1
 10
7.500000
 20
14.900000
  0
VERTEX
  8
gg1
 10
7.560000
 20
14.920000
  0
SEQEND
  8
gg1
  0
POLYLINE
  8
gg1
 62
1
 40
0.000000
 41
0.000000
 66
  1
  0
VERTEX
  8
gg1
 10
7.500000
 20
14.900000
  0
VERTEX
  8
gg1
 10
7.560000
 20
14.880000
  0
SEQEND
  8
gg1
  0
POLYLINE
  8
gg1
 62
1
 40
0.000000
 41
0.000000
 66
  1
  0
VERTEX
  8
gg1
 10
8.040000
 20
14.880000
  0
VERTEX
  8
gg1
 10
8.100000
 20
14.900000
  0
SEQEND
  8
gg1
  0
POLYLINE
  8
gg1
 62
1
 40
0.000000
 41
0.000000
 66
  1
  0
VERTEX
  8
gg1
 10
8.040000
 20
14.920000
  0
VERTEX
  8
gg1
 10
8.100000
 20
14.900000
  0
SEQEND
  8
gg1
  0
POLYLINE
  8
gg1
 62
1
 40
0.000000
 41
0.000000
 66
  1
  0
VERTEX
  8
gg1
 10
7.500000
 20
14.900000
  0
VERTEX
  8
gg1
 10
7.613000
 20
14.900000
  0
SEQEND
  8
gg1
  0
POLYLINE
  8
gg1
 62
1
 40
0.000000
 41
0.000000
 66
  1
  0
VERTEX
  8
gg1
 10
7.954900
 20
14.900000
  0
VERTEX
  8
gg1
 10
8.100000
 20
14.900000
  0
SEQEND
  8
gg1
  0
POLYLINE
  8
gg1
 62
1
 40
0.000000
 41
0.000000
 66
  1
  0
VERTEX
  8
gg1
 10
7.500000
 20
14.890000
  0
VERTEX
  8
gg1
 10
7.500000
 20
14.987500
  0
SEQEND
  8
gg1
  0
POLYLINE
  8
gg1
 62
1
 40
0.000000
 41
0.000000
 66
  1
  0
VERTEX
  8
gg1
 10
8.100000
 20
14.890000
  0
VERTEX
  8
gg1
 10
8.100000
 20
14.987500
  0
SEQEND
  8
gg1
  0
POLYLINE
  8
gg1
 62
1
 40
0.000000
 41
0.000000
 66
  1
  0
VERTEX
  8
gg1
 10
7.436000
 20
15.304100
  0
VERTEX
  8
gg1
 10
7.436000
 20
15.324100
  0
VERTEX
  8
gg1
 10
7.436000
 20
15.314100
  0
VERTEX
  8
gg1
 10
7.376000
 20
15.314100
  0
VERTEX
  8
gg1
 10
7.386000
 20
15.304100
  0
SEQEND
  8
gg1
  0
POLYLINE
  8
gg1
 62
1
 40
0.000000
 41
0.000000
 66
  1
  0
VERTEX
  8
gg1
 10
7.386000
 20
15.354000
  0
VERTEX
  8
gg1
 10
7.376000
 20
15.364000
  0
VERTEX
  8
gg1
 10
7.376000
 20
15.384000
  0
VERTEX
  8
gg1
 10
7.386000
 20
15.394000
  0
VERTEX
  8
gg1
 10
7.426000
 20
15.394000
  0
VERTEX
  8
gg1
 10
7.436000
 20
15.384000
  0
VERTEX
  8
gg1
 10
7.436000
 20
15.364000
  0
VERTEX
  8
gg1
 10
7.426000
 20
15.354000
  0
VERTEX
  8
gg1
 10
7.386000
 20
15.354000
  0
SEQEND
  8
gg1
  0
POLYLINE
  8
gg1
 62
1
 40
0.000000
 41
0.000000
 66
  1
  0
VERTEX
  8
gg1
 10
7.386000
 20
15.414000
  0
VERTEX
  8
gg1
 10
7.376000
 20
15.424000
  0
VERTEX
  8
gg1
 10
7.376000
 20
15.444000
  0
VERTEX
  8
gg1
 10
7.386000
 20
15.454000
  0
VERTEX
  8
gg1
 10
7.426000
 20
15.454000
  0
VERTEX
  8
gg1
 10
7.436000
 20
15.444000
  0
VERTEX
  8
gg1
 10
7.436000
 20
15.424000
  0
VERTEX
  8
gg1
 10
7.426000
 20
15.414000
  0
VERTEX
  8
gg1
 10
7.386000
 20
15.414000
  0
SEQEND
  8
gg1
  0
POLYLINE
  8
gg1
 62
1
 40
0.000000
 41
0.000000
 66
  1
  0
VERTEX
  8
gg1
 10
7.386000
 20
15.474000
  0
VERTEX
  8
gg1
 10
7.376000
 20
15.484000
  0
VERTEX
  8
gg1
 10
7.376000
 20
15.504000
  0
VERTEX
  8
gg1
 10
7.386000
 20
15.514000
  0
VERTEX
  8
gg1
 10
7.426000
 20
15.514000
  0
VERTEX
  8
gg1
 10
7.436000
 20
15.504000
  0
VERTEX
  8
gg1
 10
7.436000
 20
15.484000
  0
VERTEX
  8
gg1
 10
7.426000
 20
15.474000
  0
VERTEX
  8
gg1
 10
7.386000
 20
15.474000
  0
SEQEND
  8
gg1
  0
POLYLINE
  8
gg1
 62
1
 40
0.000000
 41
0.000000
 66
  1
  0
VERTEX
  8
gg1
 10
7.436000
 20
15.534000
  0
VERTEX
  8
gg1
 10
7.396000
 20
15.534000
  0
VERTEX
  8
gg1
 10
7.396000
 20
15.544000
  0
VERTEX
  8
gg1
 10
7.406000
 20
15.554000
  0
VERTEX
  8
gg1
 10
7.436000
 20
15.554000
  0
VERTEX
  8
gg1
 10
7.406000
 20
15.554000
  0
VERTEX
  8
gg1
 10
7.396000
 20
15.564000
  0
VERTEX
  8
gg1
 10
7.406000
 20
15.574000
  0
VERTEX
  8
gg1
 10
7.436000
 20
15.574000
  0
SEQEND
  8
gg1
  0
POLYLINE
  8
gg1
 62
1
 40
0.000000
 41
0.000000
 66
  1
  0
VERTEX
  8
gg1
 10
7.436000
 20
15.594000
  0
VERTEX
  8
gg1
 10
7.436000
 20
15.614000
  0
VERTEX
  8
gg1
 10
7.436000
 20
15.604000
  0
VERTEX
  8
gg1
 10
7.396000
 20
15.604000
  0
VERTEX
  8
gg1
 10
7.396000
 20
15.594000
  0
SEQEND
  8
gg1
  0
POLYLINE
  8
gg1
 62
1
 40
0.000000
 41
0.000000
 66
  1
  0
VERTEX
  8
gg1
 10
7.436000
 20
15.643900
  0
VERTEX
  8
gg1
 10
7.436000
 20
15.663900
  0
VERTEX
  8
gg1
 10
7.436000
 20
15.653900
  0
VERTEX
  8
gg1
 10
7.376000
 20
15.653900
  0
VERTEX
  8
gg1
 10
7.376000
 20
15.643900
  0
SEQEND
  8
gg1
  0
POLYLINE
  8
gg1
 62
1
 40
0.000000
 41
0.000000
 66
  1
  0
VERTEX
  8
gg1
 10
7.669000
 20
14.924000
  0
VERTEX
  8
gg1
 10
7.649000
 20
14.914000
  0
VERTEX
  8
gg1
 10
7.629000
 20
14.894000
  0
VERTEX
  8
gg1
 10
7.629000
 20
14.874000
  0
VERTEX
  8
gg1
 10
7.639000
 20
14.864000
  0
VERTEX
  8
gg1
 10
7.659000
 20
14.864000
  0
VERTEX
  8
gg1
 10
7.669000
 20
14.874000
  0
VERTEX
  8
gg1
 10
7.669000
 20
14.884000
  0
VERTEX
  8
gg1
 10
7.659000
 20
14.894000
  0
VERTEX
  8
gg1
 10
7.629000
 20
14.894000
  0
SEQEND
  8
gg1
  0
POLYLINE
  8
gg1
 62
1
 40
0.000000
 41
0.000000
 66
  1
  0
VERTEX
  8
gg1
 10
7.689000
 20
14.914000
  0
VERTEX
  8
gg1
 10
7.699000
 20
14.924000
  0
VERTEX
  8
gg1
 10
7.719000
 20
14.924000
  0
VERTEX
  8
gg1
 10
7.729000
 20
14.914000
  0
VERTEX
  8
gg1
 10
7.729000
 20
14.874000
  0
VERTEX
  8
gg1
 10
7.719000
 20
14.864000
  0
VERTEX
  8
gg1
 10
7.699000
 20
14.864000
  0
VERTEX
  8
gg1
 10
7.689000
 20
14.874000
  0
VERTEX
  8
gg1
 10
7.689000
 20
14.914000
  0
SEQEND
  8
gg1
  0
POLYLINE
  8
gg1
 62
1
 40
0.000000
 41
0.000000
 66
  1
  0
VERTEX
  8
gg1
 10
7.749000
 20
14.914000
  0
VERTEX
  8
gg1
 10
7.759000
 20
14.924000
  0
VERTEX
  8
gg1
 10
7.779000
 20
14.924000
  0
VERTEX
  8
gg1
 10
7.789000
 20
14.914000
  0
VERTEX
  8
gg1
 10
7.789000
 20
14.874000
  0
VERTEX
  8
gg1
 10
7.779000
 20
14.864000
  0
VERTEX
  8
gg1
 10
7.759000
 20
14.864000
  0
VERTEX
  8
gg1
 10
7.749000
 20
14.874000
  0
VERTEX
  8
gg1
 10
7.749000
 20
14.914000
  0
SEQEND
  8
gg1
  0
POLYLINE
  8
gg1
 62
1
 40
0.000000
 41
0.000000
 66
  1
  0
VERTEX
  8
gg1
 10
7.809000
 20
14.864000
  0
VERTEX
  8
gg1
 10
7.809000
 20
14.904000
  0
VERTEX
  8
gg1
 10
7.819000
 20
14.904000
  0
VERTEX
  8
gg1
 10
7.829000
 20
14.894000
  0
VERTEX
  8
gg1
 10
7.829000
 20
14.864000
  0
VERTEX
  8
gg1
 10
7.829000
 20
14.894000
  0
VERTEX
  8
gg1
 10
7.839000
 20
14.904000
  0
VERTEX
  8
gg1
 10
7.849000
 20
14.894000
  0
VERTEX
  8
gg1
 10
7.849000
 20
14.864000
  0
SEQEND
  8
gg1
  0
POLYLINE
  8
gg1
 62
1
 40
0.000000
 41
0.000000
 66
  1
  0
VERTEX
  8
gg1
 10
7.869000
 20
14.864000
  0
VERTEX
  8
gg1
 10
7.889000
 20
14.864000
  0
VERTEX
  8
gg1
 10
7.879000
 20
14.864000
  0
VERTEX
  8
gg1
 10
7.879000
 20
14.904000
  0
VERTEX
  8
gg1
 10
7.869000
 20
14.904000
  0
SEQEND
  8
gg1
  0
POLYLINE
  8
gg1
 62
1
 40
0.000000
 41
0.000000
 66
  1
  0
VERTEX
  8
gg1
 10
7.919000
 20
14.864000
  0
VERTEX
  8
gg1
 10
7.939000
 20
14.864000
  0
VERTEX
  8
gg1
 10
7.929000
 20
14.864000
  0
VERTEX
  8
gg1
 10
7.929000
 20
14.924000
  0
VERTEX
  8
gg1
 10
7.919000
 20
14.924000
  0
SEQEND
  8
gg1
  0
ENDSEC
  0
EOF
