  0
SECTION
  2
HEADER
  9
$EXTMIN
 10
7.348000
 20
14.836000
  9
$EXTMAX
 10
8.805000
 20
17.025000
  9
$LIMMIN
 10
7.348000
 20
14.836000
  9
$LIMMAX
 10
8.805000
 20
17.025000
  9
$FILLMODE
 70
  1
  0
ENDSEC
  0
SECTION
  2
TABLES
  0
TABLE
  2
LTYPE
 70
  1
  0
LTYPE
  2
CONTINUOUS
 70
 64
  3
Solid line
 72
 65
 73
  0
 40
0.0
  0
ENDTAB
  0
TABLE
  2
LAYER
 70
 1
  0
LAYER
  2
0
 70
  0
 62
7
  6
CONTINUOUS
  0
LAYER
  2
gg1
 70
  0
 62
1
  6
CONTINUOUS
  0
ENDTAB
  0
TABLE
  2
STYLE
 70
  1
  0
STYLE
  2
STANDARD
 70
  0
 40
0.0
 41
1.0
 50
0.0
 71
  0
 42
0.2
  3
txt
  4

  0
ENDTAB
  0
ENDSEC
  0
SECTION
  2
BLOCKS
  0
BLOCK
  8
0
  2
D10
 70
64
 10
0.0
 20
0.0
  3
D10
  0
CIRCLE
  8
0
 10
0.000000
 20
0.000000
 40
0.002500
 0
ENDBLK
  8
0
  0
BLOCK
  8
0
  2
D11
 70
64
 10
0.0
 20
0.0
  3
D11
  0
CIRCLE
  8
0
 10
0.000000
 20
0.000000
 40
0.005000
 0
ENDBLK
  8
0
  0
BLOCK
  8
0
  2
D12
 70
64
 10
0.0
 20
0.0
  3
D12
  0
CIRCLE
  8
0
 10
0.000000
 20
0.000000
 40
0.003000
 0
ENDBLK
  8
0
  0
BLOCK
  8
0
  2
D13
 70
64
 10
0.0
 20
0.0
  3
D13
  0
CIRCLE
  8
0
 10
0.000000
 20
0.000000
 40
0.001000
 0
ENDBLK
  8
0
  0
ENDSEC
  0
SECTION
  2
ENTITIES
  0
POLYLINE
  8
gg1
 62
1
 40
0.000000
 41
0.000000
 66
  1
  0
VERTEX
  8
gg1
 10
7.500000
 20
15.000000
  0
VERTEX
  8
gg1
 10
8.800000
 20
15.000000
  0
SEQEND
  8
gg1
  0
POLYLINE
  8
gg1
 62
1
 40
0.000000
 41
0.000000
 66
  1
  0
VERTEX
  8
gg1
 10
7.500000
 20
17.020000
  0
VERTEX
  8
gg1
 10
8.800000
 20
17.020000
  0
SEQEND
  8
gg1
  0
POLYLINE
  8
gg1
 62
1
 40
0.000000
 41
0.000000
 66
  1
  0
VERTEX
  8
gg1
 10
7.500000
 20
17.020000
  0
VERTEX
  8
gg1
 10
7.500000
 20
15.000000
  0
SEQEND
  8
gg1
  0
POLYLINE
  8
gg1
 62
1
 40
0.000000
 41
0.000000
 66
  1
  0
VERTEX
  8
gg1
 10
8.800000
 20
17.020000
  0
VERTEX
  8
gg1
 10
8.800000
 20
15.000000
  0
SEQEND
  8
gg1
  0
POLYLINE
  8
gg1
 62
1
 40
0.000000
 41
0.000000
 66
  1
  0
VERTEX
  8
gg1
 10
7.500000
 20
14.875000
  0
VERTEX
  8
gg1
 10
7.560000
 20
14.895000
  0
SEQEND
  8
gg1
  0
POLYLINE
  8
gg1
 62
1
 40
0.000000
 41
0.000000
 66
  1
  0
VERTEX
  8
gg1
 10
7.500000
 20
14.875000
  0
VERTEX
  8
gg1
 10
7.560000
 20
14.855000
  0
SEQEND
  8
gg1
  0
POLYLINE
  8
gg1
 62
1
 40
0.000000
 41
0.000000
 66
  1
  0
VERTEX
  8
gg1
 10
8.740000
 20
14.855000
  0
VERTEX
  8
gg1
 10
8.800000
 20
14.875000
  0
SEQEND
  8
gg1
  0
POLYLINE
  8
gg1
 62
1
 40
0.000000
 41
0.000000
 66
  1
  0
VERTEX
  8
gg1
 10
8.740000
 20
14.895000
  0
VERTEX
  8
gg1
 10
8.800000
 20
14.875000
  0
SEQEND
  8
gg1
  0
POLYLINE
  8
gg1
 62
1
 40
0.000000
 41
0.000000
 66
  1
  0
VERTEX
  8
gg1
 10
7.500000
 20
14.875000
  0
VERTEX
  8
gg1
 10
7.938100
 20
14.875000
  0
SEQEND
  8
gg1
  0
POLYLINE
  8
gg1
 62
1
 40
0.000000
 41
0.000000
 66
  1
  0
VERTEX
  8
gg1
 10
8.329900
 20
14.875000
  0
VERTEX
  8
gg1
 10
8.800000
 20
14.875000
  0
SEQEND
  8
gg1
  0
POLYLINE
  8
gg1
 62
1
 40
0.000000
 41
0.000000
 66
  1
  0
VERTEX
  8
gg1
 10
7.500000
 20
14.865000
  0
VERTEX
  8
gg1
 10
7.500000
 20
14.972500
  0
SEQEND
  8
gg1
  0
POLYLINE
  8
gg1
 62
1
 40
0.000000
 41
0.000000
 66
  1
  0
VERTEX
  8
gg1
 10
8.800000
 20
14.865000
  0
VERTEX
  8
gg1
 10
8.800000
 20
14.972500
  0
SEQEND
  8
gg1
  0
POLYLINE
  8
gg1
 62
1
 40
0.000000
 41
0.000000
 66
  1
  0
VERTEX
  8
gg1
 10
7.355000
 20
15.060000
  0
VERTEX
  8
gg1
 10
7.375000
 20
15.000000
  0
VERTEX
  8
gg1
 10
7.395000
 20
15.060000
  0
SEQEND
  8
gg1
  0
POLYLINE
  8
gg1
 62
1
 40
0.000000
 41
0.000000
 66
  1
  0
VERTEX
  8
gg1
 10
7.375000
 20
17.020000
  0
VERTEX
  8
gg1
 10
7.395000
 20
16.960000
  0
SEQEND
  8
gg1
  0
POLYLINE
  8
gg1
 62
1
 40
0.000000
 41
0.000000
 66
  1
  0
VERTEX
  8
gg1
 10
7.355000
 20
16.960000
  0
VERTEX
  8
gg1
 10
7.375000
 20
17.020000
  0
SEQEND
  8
gg1
  0
POLYLINE
  8
gg1
 62
1
 40
0.000000
 41
0.000000
 66
  1
  0
VERTEX
  8
gg1
 10
7.375000
 20
15.000000
  0
VERTEX
  8
gg1
 10
7.375000
 20
15.793100
  0
SEQEND
  8
gg1
  0
POLYLINE
  8
gg1
 62
1
 40
0.000000
 41
0.000000
 66
  1
  0
VERTEX
  8
gg1
 10
7.375000
 20
16.194900
  0
VERTEX
  8
gg1
 10
7.375000
 20
17.020000
  0
SEQEND
  8
gg1
  0
POLYLINE
  8
gg1
 62
1
 40
0.000000
 41
0.000000
 66
  1
  0
VERTEX
  8
gg1
 10
7.365000
 20
15.000000
  0
VERTEX
  8
gg1
 10
7.472500
 20
15.000000
  0
SEQEND
  8
gg1
  0
POLYLINE
  8
gg1
 62
1
 40
0.000000
 41
0.000000
 66
  1
  0
VERTEX
  8
gg1
 10
7.365000
 20
17.020000
  0
VERTEX
  8
gg1
 10
7.472500
 20
17.020000
  0
SEQEND
  8
gg1
  0
POLYLINE
  8
gg1
 62
1
 40
0.000000
 41
0.000000
 66
  1
  0
VERTEX
  8
gg1
 10
7.954100
 20
14.839000
  0
VERTEX
  8
gg1
 10
7.974100
 20
14.839000
  0
VERTEX
  8
gg1
 10
7.964100
 20
14.839000
  0
VERTEX
  8
gg1
 10
7.964100
 20
14.899000
  0
VERTEX
  8
gg1
 10
7.954100
 20
14.889000
  0
SEQEND
  8
gg1
  0
POLYLINE
  8
gg1
 62
1
 40
0.000000
 41
0.000000
 66
  1
  0
VERTEX
  8
gg1
 10
8.004000
 20
14.889000
  0
VERTEX
  8
gg1
 10
8.014000
 20
14.899000
  0
VERTEX
  8
gg1
 10
8.034000
 20
14.899000
  0
VERTEX
  8
gg1
 10
8.044000
 20
14.889000
  0
VERTEX
  8
gg1
 10
8.044000
 20
14.879000
  0
VERTEX
  8
gg1
 10
8.034000
 20
14.869000
  0
VERTEX
  8
gg1
 10
8.024000
 20
14.869000
  0
VERTEX
  8
gg1
 10
8.034000
 20
14.869000
  0
VERTEX
  8
gg1
 10
8.044000
 20
14.859000
  0
VERTEX
  8
gg1
 10
8.044000
 20
14.849000
  0
VERTEX
  8
gg1
 10
8.034000
 20
14.839000
  0
VERTEX
  8
gg1
 10
8.014000
 20
14.839000
  0
VERTEX
  8
gg1
 10
8.004000
 20
14.849000
  0
SEQEND
  8
gg1
  0
POLYLINE
  8
gg1
 62
1
 40
0.000000
 41
0.000000
 66
  1
  0
VERTEX
  8
gg1
 10
8.064000
 20
14.889000
  0
VERTEX
  8
gg1
 10
8.074000
 20
14.899000
  0
VERTEX
  8
gg1
 10
8.094000
 20
14.899000
  0
VERTEX
  8
gg1
 10
8.104000
 20
14.889000
  0
VERTEX
  8
gg1
 10
8.104000
 20
14.849000
  0
VERTEX
  8
gg1
 10
8.094000
 20
14.839000
  0
VERTEX
  8
gg1
 10
8.074000
 20
14.839000
  0
VERTEX
  8
gg1
 10
8.064000
 20
14.849000
  0
VERTEX
  8
gg1
 10
8.064000
 20
14.889000
  0
SEQEND
  8
gg1
  0
POLYLINE
  8
gg1
 62
1
 40
0.000000
 41
0.000000
 66
  1
  0
VERTEX
  8
gg1
 10
8.124000
 20
14.889000
  0
VERTEX
  8
gg1
 10
8.134000
 20
14.899000
  0
VERTEX
  8
gg1
 10
8.154000
 20
14.899000
  0
VERTEX
  8
gg1
 10
8.164000
 20
14.889000
  0
VERTEX
  8
gg1
 10
8.164000
 20
14.849000
  0
VERTEX
  8
gg1
 10
8.154000
 20
14.839000
  0
VERTEX
  8
gg1
 10
8.134000
 20
14.839000
  0
VERTEX
  8
gg1
 10
8.124000
 20
14.849000
  0
VERTEX
  8
gg1
 10
8.124000
 20
14.889000
  0
SEQEND
  8
gg1
  0
POLYLINE
  8
gg1
 62
1
 40
0.000000
 41
0.000000
 66
  1
  0
VERTEX
  8
gg1
 10
8.184000
 20
14.839000
  0
VERTEX
  8
gg1
 10
8.184000
 20
14.879000
  0
VERTEX
  8
gg1
 10
8.194000
 20
14.879000
  0
VERTEX
  8
gg1
 10
8.204000
 20
14.869000
  0
VERTEX
  8
gg1
 10
8.204000
 20
14.839000
  0
VERTEX
  8
gg1
 10
8.204000
 20
14.869000
  0
VERTEX
  8
gg1
 10
8.214000
 20
14.879000
  0
VERTEX
  8
gg1
 10
8.224000
 20
14.869000
  0
VERTEX
  8
gg1
 10
8.224000
 20
14.839000
  0
SEQEND
  8
gg1
  0
POLYLINE
  8
gg1
 62
1
 40
0.000000
 41
0.000000
 66
  1
  0
VERTEX
  8
gg1
 10
8.244000
 20
14.839000
  0
VERTEX
  8
gg1
 10
8.264000
 20
14.839000
  0
VERTEX
  8
gg1
 10
8.254000
 20
14.839000
  0
VERTEX
  8
gg1
 10
8.254000
 20
14.879000
  0
VERTEX
  8
gg1
 10
8.244000
 20
14.879000
  0
SEQEND
  8
gg1
  0
POLYLINE
  8
gg1
 62
1
 40
0.000000
 41
0.000000
 66
  1
  0
VERTEX
  8
gg1
 10
8.293900
 20
14.839000
  0
VERTEX
  8
gg1
 10
8.313900
 20
14.839000
  0
VERTEX
  8
gg1
 10
8.303900
 20
14.839000
  0
VERTEX
  8
gg1
 10
8.303900
 20
14.899000
  0
VERTEX
  8
gg1
 10
8.293900
 20
14.899000
  0
SEQEND
  8
gg1
  0
POLYLINE
  8
gg1
 62
1
 40
0.000000
 41
0.000000
 66
  1
  0
VERTEX
  8
gg1
 10
7.411000
 20
15.849000
  0
VERTEX
  8
gg1
 10
7.411000
 20
15.809100
  0
VERTEX
  8
gg1
 10
7.371000
 20
15.849000
  0
VERTEX
  8
gg1
 10
7.361000
 20
15.849000
  0
VERTEX
  8
gg1
 10
7.351000
 20
15.839100
  0
VERTEX
  8
gg1
 10
7.351000
 20
15.819100
  0
VERTEX
  8
gg1
 10
7.361000
 20
15.809100
  0
SEQEND
  8
gg1
  0
POLYLINE
  8
gg1
 62
1
 40
0.000000
 41
0.000000
 66
  1
  0
VERTEX
  8
gg1
 10
7.361000
 20
15.869000
  0
VERTEX
  8
gg1
 10
7.351000
 20
15.879000
  0
VERTEX
  8
gg1
 10
7.351000
 20
15.899000
  0
VERTEX
  8
gg1
 10
7.361000
 20
15.909000
  0
VERTEX
  8
gg1
 10
7.401000
 20
15.909000
  0
VERTEX
  8
gg1
 10
7.411000
 20
15.899000
  0
VERTEX
  8
gg1
 10
7.411000
 20
15.879000
  0
VERTEX
  8
gg1
 10
7.401000
 20
15.869000
  0
VERTEX
  8
gg1
 10
7.361000
 20
15.869000
  0
SEQEND
  8
gg1
  0
POLYLINE
  8
gg1
 62
1
 40
0.000000
 41
0.000000
 66
  1
  0
VERTEX
  8
gg1
 10
7.411000
 20
15.969000
  0
VERTEX
  8
gg1
 10
7.411000
 20
15.929000
  0
VERTEX
  8
gg1
 10
7.371000
 20
15.969000
  0
VERTEX
  8
gg1
 10
7.361000
 20
15.969000
  0
VERTEX
  8
gg1
 10
7.351000
 20
15.959000
  0
VERTEX
  8
gg1
 10
7.351000
 20
15.939000
  0
VERTEX
  8
gg1
 10
7.361000
 20
15.929000
  0
SEQEND
  8
gg1
  0
POLYLINE
  8
gg1
 62
1
 40
0.000000
 41
0.000000
 66
  1
  0
VERTEX
  8
gg1
 10
7.361000
 20
15.989000
  0
VERTEX
  8
gg1
 10
7.351000
 20
15.999000
  0
VERTEX
  8
gg1
 10
7.351000
 20
16.019000
  0
VERTEX
  8
gg1
 10
7.361000
 20
16.029000
  0
VERTEX
  8
gg1
 10
7.401000
 20
16.029000
  0
VERTEX
  8
gg1
 10
7.411000
 20
16.019000
  0
VERTEX
  8
gg1
 10
7.411000
 20
15.999000
  0
VERTEX
  8
gg1
 10
7.401000
 20
15.989000
  0
VERTEX
  8
gg1
 10
7.361000
 20
15.989000
  0
SEQEND
  8
gg1
  0
POLYLINE
  8
gg1
 62
1
 40
0.000000
 41
0.000000
 66
  1
  0
VERTEX
  8
gg1
 10
7.411000
 20
16.049000
  0
VERTEX
  8
gg1
 10
7.371000
 20
16.049000
  0
VERTEX
  8
gg1
 10
7.371000
 20
16.059000
  0
VERTEX
  8
gg1
 10
7.381000
 20
16.069000
  0
VERTEX
  8
gg1
 10
7.411000
 20
16.069000
  0
VERTEX
  8
gg1
 10
7.381000
 20
16.069000
  0
VERTEX
  8
gg1
 10
7.371000
 20
16.079000
  0
VERTEX
  8
gg1
 10
7.381000
 20
16.089000
  0
VERTEX
  8
gg1
 10
7.411000
 20
16.089000
  0
SEQEND
  8
gg1
  0
POLYLINE
  8
gg1
 62
1
 40
0.000000
 41
0.000000
 66
  1
  0
VERTEX
  8
gg1
 10
7.411000
 20
16.109000
  0
VERTEX
  8
gg1
 10
7.411000
 20
16.129000
  0
VERTEX
  8
gg1
 10
7.411000
 20
16.119000
  0
VERTEX
  8
gg1
 10
7.371000
 20
16.119000
  0
VERTEX
  8
gg1
 10
7.371000
 20
16.109000
  0
SEQEND
  8
gg1
  0
POLYLINE
  8
gg1
 62
1
 40
0.000000
 41
0.000000
 66
  1
  0
VERTEX
  8
gg1
 10
7.411000
 20
16.158900
  0
VERTEX
  8
gg1
 10
7.411000
 20
16.178900
  0
VERTEX
  8
gg1
 10
7.411000
 20
16.168900
  0
VERTEX
  8
gg1
 10
7.351000
 20
16.168900
  0
VERTEX
  8
gg1
 10
7.351000
 20
16.158900
  0
SEQEND
  8
gg1
  0
POLYLINE
  8
gg1
 62
1
 40
0.000000
 41
0.000000
 66
  1
  0
VERTEX
  8
gg1
 10
8.730000
 20
15.660000
  0
VERTEX
  8
gg1
 10
8.770000
 20
15.660000
  0
SEQEND
  8
gg1
  0
POLYLINE
  8
gg1
 62
1
 40
0.000000
 41
0.000000
 66
  1
  0
VERTEX
  8
gg1
 10
8.750000
 20
15.640000
  0
VERTEX
  8
gg1
 10
8.750000
 20
15.680000
  0
SEQEND
  8
gg1
  0
POLYLINE
  8
gg1
 62
1
 40
0.000000
 41
0.000000
 66
  1
  0
VERTEX
  8
gg1
 10
8.730000
 20
15.760000
  0
VERTEX
  8
gg1
 10
8.770000
 20
15.760000
  0
SEQEND
  8
gg1
  0
POLYLINE
  8
gg1
 62
1
 40
0.000000
 41
0.000000
 66
  1
  0
VERTEX
  8
gg1
 10
8.750000
 20
15.740000
  0
VERTEX
  8
gg1
 10
8.750000
 20
15.780000
  0
SEQEND
  8
gg1
  0
POLYLINE
  8
gg1
 62
1
 40
0.000000
 41
0.000000
 66
  1
  0
VERTEX
  8
gg1
 10
8.730000
 20
15.860000
  0
VERTEX
  8
gg1
 10
8.770000
 20
15.860000
  0
SEQEND
  8
gg1
  0
POLYLINE
  8
gg1
 62
1
 40
0.000000
 41
0.000000
 66
  1
  0
VERTEX
  8
gg1
 10
8.750000
 20
15.840000
  0
VERTEX
  8
gg1
 10
8.750000
 20
15.880000
  0
SEQEND
  8
gg1
  0
POLYLINE
  8
gg1
 62
1
 40
0.000000
 41
0.000000
 66
  1
  0
VERTEX
  8
gg1
 10
8.730000
 20
16.360000
  0
VERTEX
  8
gg1
 10
8.770000
 20
16.360000
  0
SEQEND
  8
gg1
  0
POLYLINE
  8
gg1
 62
1
 40
0.000000
 41
0.000000
 66
  1
  0
VERTEX
  8
gg1
 10
8.750000
 20
16.340000
  0
VERTEX
  8
gg1
 10
8.750000
 20
16.380000
  0
SEQEND
  8
gg1
  0
POLYLINE
  8
gg1
 62
1
 40
0.000000
 41
0.000000
 66
  1
  0
VERTEX
  8
gg1
 10
8.730000
 20
16.460000
  0
VERTEX
  8
gg1
 10
8.770000
 20
16.460000
  0
SEQEND
  8
gg1
  0
POLYLINE
  8
gg1
 62
1
 40
0.000000
 41
0.000000
 66
  1
  0
VERTEX
  8
gg1
 10
8.750000
 20
16.440000
  0
VERTEX
  8
gg1
 10
8.750000
 20
16.480000
  0
SEQEND
  8
gg1
  0
POLYLINE
  8
gg1
 62
1
 40
0.000000
 41
0.000000
 66
  1
  0
VERTEX
  8
gg1
 10
8.730000
 20
16.560000
  0
VERTEX
  8
gg1
 10
8.770000
 20
16.560000
  0
SEQEND
  8
gg1
  0
POLYLINE
  8
gg1
 62
1
 40
0.000000
 41
0.000000
 66
  1
  0
VERTEX
  8
gg1
 10
8.750000
 20
16.540000
  0
VERTEX
  8
gg1
 10
8.750000
 20
16.580000
  0
SEQEND
  8
gg1
  0
POLYLINE
  8
gg1
 62
1
 40
0.000000
 41
0.000000
 66
  1
  0
VERTEX
  8
gg1
 10
8.730000
 20
16.660000
  0
VERTEX
  8
gg1
 10
8.770000
 20
16.660000
  0
SEQEND
  8
gg1
  0
POLYLINE
  8
gg1
 62
1
 40
0.000000
 41
0.000000
 66
  1
  0
VERTEX
  8
gg1
 10
8.750000
 20
16.640000
  0
VERTEX
  8
gg1
 10
8.750000
 20
16.680000
  0
SEQEND
  8
gg1
  0
POLYLINE
  8
gg1
 62
1
 40
0.000000
 41
0.000000
 66
  1
  0
VERTEX
  8
gg1
 10
8.730000
 20
16.760000
  0
VERTEX
  8
gg1
 10
8.770000
 20
16.760000
  0
SEQEND
  8
gg1
  0
POLYLINE
  8
gg1
 62
1
 40
0.000000
 41
0.000000
 66
  1
  0
VERTEX
  8
gg1
 10
8.750000
 20
16.740000
  0
VERTEX
  8
gg1
 10
8.750000
 20
16.780000
  0
SEQEND
  8
gg1
  0
POLYLINE
  8
gg1
 62
1
 40
0.000000
 41
0.000000
 66
  1
  0
VERTEX
  8
gg1
 10
8.730000
 20
16.260000
  0
VERTEX
  8
gg1
 10
8.770000
 20
16.260000
  0
SEQEND
  8
gg1
  0
POLYLINE
  8
gg1
 62
1
 40
0.000000
 41
0.000000
 66
  1
  0
VERTEX
  8
gg1
 10
8.750000
 20
16.240000
  0
VERTEX
  8
gg1
 10
8.750000
 20
16.280000
  0
SEQEND
  8
gg1
  0
POLYLINE
  8
gg1
 62
1
 40
0.000000
 41
0.000000
 66
  1
  0
VERTEX
  8
gg1
 10
8.730000
 20
16.160000
  0
VERTEX
  8
gg1
 10
8.770000
 20
16.160000
  0
SEQEND
  8
gg1
  0
POLYLINE
  8
gg1
 62
1
 40
0.000000
 41
0.000000
 66
  1
  0
VERTEX
  8
gg1
 10
8.750000
 20
16.140000
  0
VERTEX
  8
gg1
 10
8.750000
 20
16.180000
  0
SEQEND
  8
gg1
  0
POLYLINE
  8
gg1
 62
1
 40
0.000000
 41
0.000000
 66
  1
  0
VERTEX
  8
gg1
 10
8.730000
 20
16.060000
  0
VERTEX
  8
gg1
 10
8.770000
 20
16.060000
  0
SEQEND
  8
gg1
  0
POLYLINE
  8
gg1
 62
1
 40
0.000000
 41
0.000000
 66
  1
  0
VERTEX
  8
gg1
 10
8.750000
 20
16.040000
  0
VERTEX
  8
gg1
 10
8.750000
 20
16.080000
  0
SEQEND
  8
gg1
  0
POLYLINE
  8
gg1
 62
1
 40
0.000000
 41
0.000000
 66
  1
  0
VERTEX
  8
gg1
 10
8.730000
 20
15.960000
  0
VERTEX
  8
gg1
 10
8.770000
 20
15.960000
  0
SEQEND
  8
gg1
  0
POLYLINE
  8
gg1
 62
1
 40
0.000000
 41
0.000000
 66
  1
  0
VERTEX
  8
gg1
 10
8.750000
 20
15.940000
  0
VERTEX
  8
gg1
 10
8.750000
 20
15.980000
  0
SEQEND
  8
gg1
  0
POLYLINE
  8
gg1
 62
1
 40
0.000000
 41
0.000000
 66
  1
  0
VERTEX
  8
gg1
 10
8.730000
 20
15.560000
  0
VERTEX
  8
gg1
 10
8.770000
 20
15.560000
  0
SEQEND
  8
gg1
  0
POLYLINE
  8
gg1
 62
1
 40
0.000000
 41
0.000000
 66
  1
  0
VERTEX
  8
gg1
 10
8.750000
 20
15.540000
  0
VERTEX
  8
gg1
 10
8.750000
 20
15.580000
  0
SEQEND
  8
gg1
  0
POLYLINE
  8
gg1
 62
1
 40
0.000000
 41
0.000000
 66
  1
  0
VERTEX
  8
gg1
 10
8.730000
 20
15.460000
  0
VERTEX
  8
gg1
 10
8.770000
 20
15.460000
  0
SEQEND
  8
gg1
  0
POLYLINE
  8
gg1
 62
1
 40
0.000000
 41
0.000000
 66
  1
  0
VERTEX
  8
gg1
 10
8.750000
 20
15.440000
  0
VERTEX
  8
gg1
 10
8.750000
 20
15.480000
  0
SEQEND
  8
gg1
  0
POLYLINE
  8
gg1
 62
1
 40
0.000000
 41
0.000000
 66
  1
  0
VERTEX
  8
gg1
 10
8.730000
 20
15.360000
  0
VERTEX
  8
gg1
 10
8.770000
 20
15.360000
  0
SEQEND
  8
gg1
  0
POLYLINE
  8
gg1
 62
1
 40
0.000000
 41
0.000000
 66
  1
  0
VERTEX
  8
gg1
 10
8.750000
 20
15.340000
  0
VERTEX
  8
gg1
 10
8.750000
 20
15.380000
  0
SEQEND
  8
gg1
  0
POLYLINE
  8
gg1
 62
1
 40
0.000000
 41
0.000000
 66
  1
  0
VERTEX
  8
gg1
 10
8.730000
 20
15.260000
  0
VERTEX
  8
gg1
 10
8.770000
 20
15.260000
  0
SEQEND
  8
gg1
  0
POLYLINE
  8
gg1
 62
1
 40
0.000000
 41
0.000000
 66
  1
  0
VERTEX
  8
gg1
 10
8.750000
 20
15.240000
  0
VERTEX
  8
gg1
 10
8.750000
 20
15.280000
  0
SEQEND
  8
gg1
  0
POLYLINE
  8
gg1
 62
1
 40
0.000000
 41
0.000000
 66
  1
  0
VERTEX
  8
gg1
 10
8.637000
 20
15.517900
  0
VERTEX
  8
gg1
 10
8.723000
 20
15.517900
  0
SEQEND
  8
gg1
  0
POLYLINE
  8
gg1
 62
1
 40
0.000000
 41
0.000000
 66
  1
  0
VERTEX
  8
gg1
 10
8.680000
 20
15.474900
  0
VERTEX
  8
gg1
 10
8.680000
 20
15.560900
  0
SEQEND
  8
gg1
  0
POLYLINE
  8
gg1
 62
1
 40
0.000000
 41
0.000000
 66
  1
  0
VERTEX
  8
gg1
 10
8.637000
 20
15.321000
  0
VERTEX
  8
gg1
 10
8.723000
 20
15.321000
  0
SEQEND
  8
gg1
  0
POLYLINE
  8
gg1
 62
1
 40
0.000000
 41
0.000000
 66
  1
  0
VERTEX
  8
gg1
 10
8.680000
 20
15.278000
  0
VERTEX
  8
gg1
 10
8.680000
 20
15.364000
  0
SEQEND
  8
gg1
  0
POLYLINE
  8
gg1
 62
1
 40
0.000000
 41
0.000000
 66
  1
  0
VERTEX
  8
gg1
 10
8.070000
 20
16.320000
  0
VERTEX
  8
gg1
 10
8.090000
 20
16.320000
  0
SEQEND
  8
gg1
  0
POLYLINE
  8
gg1
 62
1
 40
0.000000
 41
0.000000
 66
  1
  0
VERTEX
  8
gg1
 10
8.080000
 20
16.310000
  0
VERTEX
  8
gg1
 10
8.080000
 20
16.330000
  0
SEQEND
  8
gg1
  0
POLYLINE
  8
gg1
 62
1
 40
0.000000
 41
0.000000
 66
  1
  0
VERTEX
  8
gg1
 10
7.597500
 20
16.620000
  0
VERTEX
  8
gg1
 10
7.722500
 20
16.620000
  0
SEQEND
  8
gg1
  0
POLYLINE
  8
gg1
 62
1
 40
0.000000
 41
0.000000
 66
  1
  0
VERTEX
  8
gg1
 10
7.660000
 20
16.557500
  0
VERTEX
  8
gg1
 10
7.660000
 20
16.682500
  0
SEQEND
  8
gg1
  0
POLYLINE
  8
gg1
 62
1
 40
0.000000
 41
0.000000
 66
  1
  0
VERTEX
  8
gg1
 10
8.630000
 20
16.860000
  0
VERTEX
  8
gg1
 10
8.670000
 20
16.860000
  0
SEQEND
  8
gg1
  0
POLYLINE
  8
gg1
 62
1
 40
0.000000
 41
0.000000
 66
  1
  0
VERTEX
  8
gg1
 10
8.650000
 20
16.840000
  0
VERTEX
  8
gg1
 10
8.650000
 20
16.880000
  0
SEQEND
  8
gg1
  0
POLYLINE
  8
gg1
 62
1
 40
0.000000
 41
0.000000
 66
  1
  0
VERTEX
  8
gg1
 10
8.730000
 20
16.860000
  0
VERTEX
  8
gg1
 10
8.770000
 20
16.860000
  0
SEQEND
  8
gg1
  0
POLYLINE
  8
gg1
 62
1
 40
0.000000
 41
0.000000
 66
  1
  0
VERTEX
  8
gg1
 10
8.750000
 20
16.840000
  0
VERTEX
  8
gg1
 10
8.750000
 20
16.880000
  0
SEQEND
  8
gg1
  0
POLYLINE
  8
gg1
 62
1
 40
0.000000
 41
0.000000
 66
  1
  0
VERTEX
  8
gg1
 10
8.320000
 20
15.447500
  0
VERTEX
  8
gg1
 10
8.340000
 20
15.447500
  0
SEQEND
  8
gg1
  0
POLYLINE
  8
gg1
 62
1
 40
0.000000
 41
0.000000
 66
  1
  0
VERTEX
  8
gg1
 10
8.330000
 20
15.437500
  0
VERTEX
  8
gg1
 10
8.330000
 20
15.457500
  0
SEQEND
  8
gg1
  0
POLYLINE
  8
gg1
 62
1
 40
0.000000
 41
0.000000
 66
  1
  0
VERTEX
  8
gg1
 10
8.320000
 20
15.797500
  0
VERTEX
  8
gg1
 10
8.340000
 20
15.797500
  0
SEQEND
  8
gg1
  0
POLYLINE
  8
gg1
 62
1
 40
0.000000
 41
0.000000
 66
  1
  0
VERTEX
  8
gg1
 10
8.330000
 20
15.787500
  0
VERTEX
  8
gg1
 10
8.330000
 20
15.807500
  0
SEQEND
  8
gg1
  0
POLYLINE
  8
gg1
 62
1
 40
0.000000
 41
0.000000
 66
  1
  0
VERTEX
  8
gg1
 10
7.870000
 20
16.960000
  0
VERTEX
  8
gg1
 10
7.910000
 20
16.960000
  0
SEQEND
  8
gg1
  0
POLYLINE
  8
gg1
 62
1
 40
0.000000
 41
0.000000
 66
  1
  0
VERTEX
  8
gg1
 10
7.890000
 20
16.940000
  0
VERTEX
  8
gg1
 10
7.890000
 20
16.980000
  0
SEQEND
  8
gg1
  0
POLYLINE
  8
gg1
 62
1
 40
0.000000
 41
0.000000
 66
  1
  0
VERTEX
  8
gg1
 10
7.570000
 20
16.960000
  0
VERTEX
  8
gg1
 10
7.610000
 20
16.960000
  0
SEQEND
  8
gg1
  0
POLYLINE
  8
gg1
 62
1
 40
0.000000
 41
0.000000
 66
  1
  0
VERTEX
  8
gg1
 10
7.590000
 20
16.940000
  0
VERTEX
  8
gg1
 10
7.590000
 20
16.980000
  0
SEQEND
  8
gg1
  0
POLYLINE
  8
gg1
 62
1
 40
0.000000
 41
0.000000
 66
  1
  0
VERTEX
  8
gg1
 10
7.970000
 20
16.960000
  0
VERTEX
  8
gg1
 10
8.010000
 20
16.960000
  0
SEQEND
  8
gg1
  0
POLYLINE
  8
gg1
 62
1
 40
0.000000
 41
0.000000
 66
  1
  0
VERTEX
  8
gg1
 10
7.990000
 20
16.940000
  0
VERTEX
  8
gg1
 10
7.990000
 20
16.980000
  0
SEQEND
  8
gg1
  0
POLYLINE
  8
gg1
 62
1
 40
0.000000
 41
0.000000
 66
  1
  0
VERTEX
  8
gg1
 10
8.130000
 20
15.060000
  0
VERTEX
  8
gg1
 10
8.170000
 20
15.060000
  0
SEQEND
  8
gg1
  0
POLYLINE
  8
gg1
 62
1
 40
0.000000
 41
0.000000
 66
  1
  0
VERTEX
  8
gg1
 10
8.150000
 20
15.040000
  0
VERTEX
  8
gg1
 10
8.150000
 20
15.080000
  0
SEQEND
  8
gg1
  0
POLYLINE
  8
gg1
 62
1
 40
0.000000
 41
0.000000
 66
  1
  0
VERTEX
  8
gg1
 10
8.070000
 20
16.960000
  0
VERTEX
  8
gg1
 10
8.110000
 20
16.960000
  0
SEQEND
  8
gg1
  0
POLYLINE
  8
gg1
 62
1
 40
0.000000
 41
0.000000
 66
  1
  0
VERTEX
  8
gg1
 10
8.090000
 20
16.940000
  0
VERTEX
  8
gg1
 10
8.090000
 20
16.980000
  0
SEQEND
  8
gg1
  0
POLYLINE
  8
gg1
 62
1
 40
0.000000
 41
0.000000
 66
  1
  0
VERTEX
  8
gg1
 10
8.170000
 20
16.960000
  0
VERTEX
  8
gg1
 10
8.210000
 20
16.960000
  0
SEQEND
  8
gg1
  0
POLYLINE
  8
gg1
 62
1
 40
0.000000
 41
0.000000
 66
  1
  0
VERTEX
  8
gg1
 10
8.190000
 20
16.940000
  0
VERTEX
  8
gg1
 10
8.190000
 20
16.980000
  0
SEQEND
  8
gg1
  0
POLYLINE
  8
gg1
 62
1
 40
0.000000
 41
0.000000
 66
  1
  0
VERTEX
  8
gg1
 10
8.270000
 20
16.960000
  0
VERTEX
  8
gg1
 10
8.310000
 20
16.960000
  0
SEQEND
  8
gg1
  0
POLYLINE
  8
gg1
 62
1
 40
0.000000
 41
0.000000
 66
  1
  0
VERTEX
  8
gg1
 10
8.290000
 20
16.940000
  0
VERTEX
  8
gg1
 10
8.290000
 20
16.980000
  0
SEQEND
  8
gg1
  0
POLYLINE
  8
gg1
 62
1
 40
0.000000
 41
0.000000
 66
  1
  0
VERTEX
  8
gg1
 10
8.370000
 20
16.960000
  0
VERTEX
  8
gg1
 10
8.410000
 20
16.960000
  0
SEQEND
  8
gg1
  0
POLYLINE
  8
gg1
 62
1
 40
0.000000
 41
0.000000
 66
  1
  0
VERTEX
  8
gg1
 10
8.390000
 20
16.940000
  0
VERTEX
  8
gg1
 10
8.390000
 20
16.980000
  0
SEQEND
  8
gg1
  0
POLYLINE
  8
gg1
 62
1
 40
0.000000
 41
0.000000
 66
  1
  0
VERTEX
  8
gg1
 10
8.470000
 20
16.960000
  0
VERTEX
  8
gg1
 10
8.510000
 20
16.960000
  0
SEQEND
  8
gg1
  0
POLYLINE
  8
gg1
 62
1
 40
0.000000
 41
0.000000
 66
  1
  0
VERTEX
  8
gg1
 10
8.490000
 20
16.940000
  0
VERTEX
  8
gg1
 10
8.490000
 20
16.980000
  0
SEQEND
  8
gg1
  0
POLYLINE
  8
gg1
 62
1
 40
0.000000
 41
0.000000
 66
  1
  0
VERTEX
  8
gg1
 10
8.630000
 20
16.960000
  0
VERTEX
  8
gg1
 10
8.670000
 20
16.960000
  0
SEQEND
  8
gg1
  0
POLYLINE
  8
gg1
 62
1
 40
0.000000
 41
0.000000
 66
  1
  0
VERTEX
  8
gg1
 10
8.650000
 20
16.940000
  0
VERTEX
  8
gg1
 10
8.650000
 20
16.980000
  0
SEQEND
  8
gg1
  0
POLYLINE
  8
gg1
 62
1
 40
0.000000
 41
0.000000
 66
  1
  0
VERTEX
  8
gg1
 10
8.730000
 20
16.960000
  0
VERTEX
  8
gg1
 10
8.770000
 20
16.960000
  0
SEQEND
  8
gg1
  0
POLYLINE
  8
gg1
 62
1
 40
0.000000
 41
0.000000
 66
  1
  0
VERTEX
  8
gg1
 10
8.750000
 20
16.940000
  0
VERTEX
  8
gg1
 10
8.750000
 20
16.980000
  0
SEQEND
  8
gg1
  0
POLYLINE
  8
gg1
 62
1
 40
0.000000
 41
0.000000
 66
  1
  0
VERTEX
  8
gg1
 10
8.230000
 20
15.060000
  0
VERTEX
  8
gg1
 10
8.270000
 20
15.060000
  0
SEQEND
  8
gg1
  0
POLYLINE
  8
gg1
 62
1
 40
0.000000
 41
0.000000
 66
  1
  0
VERTEX
  8
gg1
 10
8.250000
 20
15.040000
  0
VERTEX
  8
gg1
 10
8.250000
 20
15.080000
  0
SEQEND
  8
gg1
  0
POLYLINE
  8
gg1
 62
1
 40
0.000000
 41
0.000000
 66
  1
  0
VERTEX
  8
gg1
 10
8.330000
 20
15.060000
  0
VERTEX
  8
gg1
 10
8.370000
 20
15.060000
  0
SEQEND
  8
gg1
  0
POLYLINE
  8
gg1
 62
1
 40
0.000000
 41
0.000000
 66
  1
  0
VERTEX
  8
gg1
 10
8.350000
 20
15.040000
  0
VERTEX
  8
gg1
 10
8.350000
 20
15.080000
  0
SEQEND
  8
gg1
  0
POLYLINE
  8
gg1
 62
1
 40
0.000000
 41
0.000000
 66
  1
  0
VERTEX
  8
gg1
 10
8.430000
 20
15.060000
  0
VERTEX
  8
gg1
 10
8.470000
 20
15.060000
  0
SEQEND
  8
gg1
  0
POLYLINE
  8
gg1
 62
1
 40
0.000000
 41
0.000000
 66
  1
  0
VERTEX
  8
gg1
 10
8.450000
 20
15.040000
  0
VERTEX
  8
gg1
 10
8.450000
 20
15.080000
  0
SEQEND
  8
gg1
  0
POLYLINE
  8
gg1
 62
1
 40
0.000000
 41
0.000000
 66
  1
  0
VERTEX
  8
gg1
 10
8.530000
 20
15.060000
  0
VERTEX
  8
gg1
 10
8.570000
 20
15.060000
  0
SEQEND
  8
gg1
  0
POLYLINE
  8
gg1
 62
1
 40
0.000000
 41
0.000000
 66
  1
  0
VERTEX
  8
gg1
 10
8.550000
 20
15.040000
  0
VERTEX
  8
gg1
 10
8.550000
 20
15.080000
  0
SEQEND
  8
gg1
  0
POLYLINE
  8
gg1
 62
1
 40
0.000000
 41
0.000000
 66
  1
  0
VERTEX
  8
gg1
 10
8.630000
 20
15.060000
  0
VERTEX
  8
gg1
 10
8.670000
 20
15.060000
  0
SEQEND
  8
gg1
  0
POLYLINE
  8
gg1
 62
1
 40
0.000000
 41
0.000000
 66
  1
  0
VERTEX
  8
gg1
 10
8.650000
 20
15.040000
  0
VERTEX
  8
gg1
 10
8.650000
 20
15.080000
  0
SEQEND
  8
gg1
  0
POLYLINE
  8
gg1
 62
1
 40
0.000000
 41
0.000000
 66
  1
  0
VERTEX
  8
gg1
 10
7.770000
 20
16.960000
  0
VERTEX
  8
gg1
 10
7.810000
 20
16.960000
  0
SEQEND
  8
gg1
  0
POLYLINE
  8
gg1
 62
1
 40
0.000000
 41
0.000000
 66
  1
  0
VERTEX
  8
gg1
 10
7.790000
 20
16.940000
  0
VERTEX
  8
gg1
 10
7.790000
 20
16.980000
  0
SEQEND
  8
gg1
  0
POLYLINE
  8
gg1
 62
1
 40
0.000000
 41
0.000000
 66
  1
  0
VERTEX
  8
gg1
 10
7.670000
 20
16.960000
  0
VERTEX
  8
gg1
 10
7.710000
 20
16.960000
  0
SEQEND
  8
gg1
  0
POLYLINE
  8
gg1
 62
1
 40
0.000000
 41
0.000000
 66
  1
  0
VERTEX
  8
gg1
 10
7.690000
 20
16.940000
  0
VERTEX
  8
gg1
 10
7.690000
 20
16.980000
  0
SEQEND
  8
gg1
  0
POLYLINE
  8
gg1
 62
1
 40
0.000000
 41
0.000000
 66
  1
  0
VERTEX
  8
gg1
 10
7.930000
 20
15.060000
  0
VERTEX
  8
gg1
 10
7.970000
 20
15.060000
  0
SEQEND
  8
gg1
  0
POLYLINE
  8
gg1
 62
1
 40
0.000000
 41
0.000000
 66
  1
  0
VERTEX
  8
gg1
 10
7.950000
 20
15.040000
  0
VERTEX
  8
gg1
 10
7.950000
 20
15.080000
  0
SEQEND
  8
gg1
  0
POLYLINE
  8
gg1
 62
1
 40
0.000000
 41
0.000000
 66
  1
  0
VERTEX
  8
gg1
 10
8.030000
 20
15.060000
  0
VERTEX
  8
gg1
 10
8.070000
 20
15.060000
  0
SEQEND
  8
gg1
  0
POLYLINE
  8
gg1
 62
1
 40
0.000000
 41
0.000000
 66
  1
  0
VERTEX
  8
gg1
 10
8.050000
 20
15.040000
  0
VERTEX
  8
gg1
 10
8.050000
 20
15.080000
  0
SEQEND
  8
gg1
  0
POLYLINE
  8
gg1
 62
1
 40
0.000000
 41
0.000000
 66
  1
  0
VERTEX
  8
gg1
 10
7.597500
 20
15.150000
  0
VERTEX
  8
gg1
 10
7.722500
 20
15.150000
  0
SEQEND
  8
gg1
  0
POLYLINE
  8
gg1
 62
1
 40
0.000000
 41
0.000000
 66
  1
  0
VERTEX
  8
gg1
 10
7.660000
 20
15.087500
  0
VERTEX
  8
gg1
 10
7.660000
 20
15.212500
  0
SEQEND
  8
gg1
  0
POLYLINE
  8
gg1
 62
1
 40
0.000000
 41
0.000000
 66
  1
  0
VERTEX
  8
gg1
 10
8.630000
 20
15.160000
  0
VERTEX
  8
gg1
 10
8.670000
 20
15.160000
  0
SEQEND
  8
gg1
  0
POLYLINE
  8
gg1
 62
1
 40
0.000000
 41
0.000000
 66
  1
  0
VERTEX
  8
gg1
 10
8.650000
 20
15.140000
  0
VERTEX
  8
gg1
 10
8.650000
 20
15.180000
  0
SEQEND
  8
gg1
  0
POLYLINE
  8
gg1
 62
1
 40
0.000000
 41
0.000000
 66
  1
  0
VERTEX
  8
gg1
 10
8.730000
 20
15.160000
  0
VERTEX
  8
gg1
 10
8.770000
 20
15.160000
  0
SEQEND
  8
gg1
  0
POLYLINE
  8
gg1
 62
1
 40
0.000000
 41
0.000000
 66
  1
  0
VERTEX
  8
gg1
 10
8.750000
 20
15.140000
  0
VERTEX
  8
gg1
 10
8.750000
 20
15.180000
  0
SEQEND
  8
gg1
  0
POLYLINE
  8
gg1
 62
1
 40
0.000000
 41
0.000000
 66
  1
  0
VERTEX
  8
gg1
 10
8.320000
 20
16.632500
  0
VERTEX
  8
gg1
 10
8.340000
 20
16.632500
  0
SEQEND
  8
gg1
  0
POLYLINE
  8
gg1
 62
1
 40
0.000000
 41
0.000000
 66
  1
  0
VERTEX
  8
gg1
 10
8.330000
 20
16.622500
  0
VERTEX
  8
gg1
 10
8.330000
 20
16.642500
  0
SEQEND
  8
gg1
  0
POLYLINE
  8
gg1
 62
1
 40
0.000000
 41
0.000000
 66
  1
  0
VERTEX
  8
gg1
 10
8.330000
 20
15.160000
  0
VERTEX
  8
gg1
 10
8.370000
 20
15.160000
  0
SEQEND
  8
gg1
  0
POLYLINE
  8
gg1
 62
1
 40
0.000000
 41
0.000000
 66
  1
  0
VERTEX
  8
gg1
 10
8.350000
 20
15.140000
  0
VERTEX
  8
gg1
 10
8.350000
 20
15.180000
  0
SEQEND
  8
gg1
  0
POLYLINE
  8
gg1
 62
1
 40
0.000000
 41
0.000000
 66
  1
  0
VERTEX
  8
gg1
 10
8.230000
 20
15.160000
  0
VERTEX
  8
gg1
 10
8.270000
 20
15.160000
  0
SEQEND
  8
gg1
  0
POLYLINE
  8
gg1
 62
1
 40
0.000000
 41
0.000000
 66
  1
  0
VERTEX
  8
gg1
 10
8.250000
 20
15.140000
  0
VERTEX
  8
gg1
 10
8.250000
 20
15.180000
  0
SEQEND
  8
gg1
  0
POLYLINE
  8
gg1
 62
1
 40
0.000000
 41
0.000000
 66
  1
  0
VERTEX
  8
gg1
 10
8.130000
 20
15.160000
  0
VERTEX
  8
gg1
 10
8.170000
 20
15.160000
  0
SEQEND
  8
gg1
  0
POLYLINE
  8
gg1
 62
1
 40
0.000000
 41
0.000000
 66
  1
  0
VERTEX
  8
gg1
 10
8.150000
 20
15.140000
  0
VERTEX
  8
gg1
 10
8.150000
 20
15.180000
  0
SEQEND
  8
gg1
  0
POLYLINE
  8
gg1
 62
1
 40
0.000000
 41
0.000000
 66
  1
  0
VERTEX
  8
gg1
 10
8.030000
 20
15.160000
  0
VERTEX
  8
gg1
 10
8.070000
 20
15.160000
  0
SEQEND
  8
gg1
  0
POLYLINE
  8
gg1
 62
1
 40
0.000000
 41
0.000000
 66
  1
  0
VERTEX
  8
gg1
 10
8.050000
 20
15.140000
  0
VERTEX
  8
gg1
 10
8.050000
 20
15.180000
  0
SEQEND
  8
gg1
  0
POLYLINE
  8
gg1
 62
1
 40
0.000000
 41
0.000000
 66
  1
  0
VERTEX
  8
gg1
 10
7.930000
 20
15.160000
  0
VERTEX
  8
gg1
 10
7.970000
 20
15.160000
  0
SEQEND
  8
gg1
  0
POLYLINE
  8
gg1
 62
1
 40
0.000000
 41
0.000000
 66
  1
  0
VERTEX
  8
gg1
 10
7.950000
 20
15.140000
  0
VERTEX
  8
gg1
 10
7.950000
 20
15.180000
  0
SEQEND
  8
gg1
  0
POLYLINE
  8
gg1
 62
1
 40
0.000000
 41
0.000000
 66
  1
  0
VERTEX
  8
gg1
 10
7.530000
 20
15.860000
  0
VERTEX
  8
gg1
 10
7.570000
 20
15.860000
  0
SEQEND
  8
gg1
  0
POLYLINE
  8
gg1
 62
1
 40
0.000000
 41
0.000000
 66
  1
  0
VERTEX
  8
gg1
 10
7.550000
 20
15.840000
  0
VERTEX
  8
gg1
 10
7.550000
 20
15.880000
  0
SEQEND
  8
gg1
  0
POLYLINE
  8
gg1
 62
1
 40
0.000000
 41
0.000000
 66
  1
  0
VERTEX
  8
gg1
 10
7.530000
 20
15.760000
  0
VERTEX
  8
gg1
 10
7.570000
 20
15.760000
  0
SEQEND
  8
gg1
  0
POLYLINE
  8
gg1
 62
1
 40
0.000000
 41
0.000000
 66
  1
  0
VERTEX
  8
gg1
 10
7.550000
 20
15.740000
  0
VERTEX
  8
gg1
 10
7.550000
 20
15.780000
  0
SEQEND
  8
gg1
  0
POLYLINE
  8
gg1
 62
1
 40
0.000000
 41
0.000000
 66
  1
  0
VERTEX
  8
gg1
 10
7.530000
 20
16.360000
  0
VERTEX
  8
gg1
 10
7.570000
 20
16.360000
  0
SEQEND
  8
gg1
  0
POLYLINE
  8
gg1
 62
1
 40
0.000000
 41
0.000000
 66
  1
  0
VERTEX
  8
gg1
 10
7.550000
 20
16.340000
  0
VERTEX
  8
gg1
 10
7.550000
 20
16.380000
  0
SEQEND
  8
gg1
  0
POLYLINE
  8
gg1
 62
1
 40
0.000000
 41
0.000000
 66
  1
  0
VERTEX
  8
gg1
 10
7.530000
 20
16.260000
  0
VERTEX
  8
gg1
 10
7.570000
 20
16.260000
  0
SEQEND
  8
gg1
  0
POLYLINE
  8
gg1
 62
1
 40
0.000000
 41
0.000000
 66
  1
  0
VERTEX
  8
gg1
 10
7.550000
 20
16.240000
  0
VERTEX
  8
gg1
 10
7.550000
 20
16.280000
  0
SEQEND
  8
gg1
  0
POLYLINE
  8
gg1
 62
1
 40
0.000000
 41
0.000000
 66
  1
  0
VERTEX
  8
gg1
 10
7.530000
 20
16.160000
  0
VERTEX
  8
gg1
 10
7.570000
 20
16.160000
  0
SEQEND
  8
gg1
  0
POLYLINE
  8
gg1
 62
1
 40
0.000000
 41
0.000000
 66
  1
  0
VERTEX
  8
gg1
 10
7.550000
 20
16.140000
  0
VERTEX
  8
gg1
 10
7.550000
 20
16.180000
  0
SEQEND
  8
gg1
  0
POLYLINE
  8
gg1
 62
1
 40
0.000000
 41
0.000000
 66
  1
  0
VERTEX
  8
gg1
 10
7.530000
 20
16.060000
  0
VERTEX
  8
gg1
 10
7.570000
 20
16.060000
  0
SEQEND
  8
gg1
  0
POLYLINE
  8
gg1
 62
1
 40
0.000000
 41
0.000000
 66
  1
  0
VERTEX
  8
gg1
 10
7.550000
 20
16.040000
  0
VERTEX
  8
gg1
 10
7.550000
 20
16.080000
  0
SEQEND
  8
gg1
  0
POLYLINE
  8
gg1
 62
1
 40
0.000000
 41
0.000000
 66
  1
  0
VERTEX
  8
gg1
 10
7.530000
 20
15.960000
  0
VERTEX
  8
gg1
 10
7.570000
 20
15.960000
  0
SEQEND
  8
gg1
  0
POLYLINE
  8
gg1
 62
1
 40
0.000000
 41
0.000000
 66
  1
  0
VERTEX
  8
gg1
 10
7.550000
 20
15.940000
  0
VERTEX
  8
gg1
 10
7.550000
 20
15.980000
  0
SEQEND
  8
gg1
  0
POLYLINE
  8
gg1
 62
1
 40
0.000000
 41
0.000000
 66
  1
  0
VERTEX
  8
gg1
 10
8.430000
 20
16.860000
  0
VERTEX
  8
gg1
 10
8.470000
 20
16.860000
  0
SEQEND
  8
gg1
  0
POLYLINE
  8
gg1
 62
1
 40
0.000000
 41
0.000000
 66
  1
  0
VERTEX
  8
gg1
 10
8.450000
 20
16.840000
  0
VERTEX
  8
gg1
 10
8.450000
 20
16.880000
  0
SEQEND
  8
gg1
  0
POLYLINE
  8
gg1
 62
1
 40
0.000000
 41
0.000000
 66
  1
  0
VERTEX
  8
gg1
 10
8.330000
 20
16.860000
  0
VERTEX
  8
gg1
 10
8.370000
 20
16.860000
  0
SEQEND
  8
gg1
  0
POLYLINE
  8
gg1
 62
1
 40
0.000000
 41
0.000000
 66
  1
  0
VERTEX
  8
gg1
 10
8.350000
 20
16.840000
  0
VERTEX
  8
gg1
 10
8.350000
 20
16.880000
  0
SEQEND
  8
gg1
  0
POLYLINE
  8
gg1
 62
1
 40
0.000000
 41
0.000000
 66
  1
  0
VERTEX
  8
gg1
 10
8.230000
 20
16.860000
  0
VERTEX
  8
gg1
 10
8.270000
 20
16.860000
  0
SEQEND
  8
gg1
  0
POLYLINE
  8
gg1
 62
1
 40
0.000000
 41
0.000000
 66
  1
  0
VERTEX
  8
gg1
 10
8.250000
 20
16.840000
  0
VERTEX
  8
gg1
 10
8.250000
 20
16.880000
  0
SEQEND
  8
gg1
  0
POLYLINE
  8
gg1
 62
1
 40
0.000000
 41
0.000000
 66
  1
  0
VERTEX
  8
gg1
 10
7.730000
 20
16.860000
  0
VERTEX
  8
gg1
 10
7.770000
 20
16.860000
  0
SEQEND
  8
gg1
  0
POLYLINE
  8
gg1
 62
1
 40
0.000000
 41
0.000000
 66
  1
  0
VERTEX
  8
gg1
 10
7.750000
 20
16.840000
  0
VERTEX
  8
gg1
 10
7.750000
 20
16.880000
  0
SEQEND
  8
gg1
  0
POLYLINE
  8
gg1
 62
1
 40
0.000000
 41
0.000000
 66
  1
  0
VERTEX
  8
gg1
 10
7.830000
 20
16.860000
  0
VERTEX
  8
gg1
 10
7.870000
 20
16.860000
  0
SEQEND
  8
gg1
  0
POLYLINE
  8
gg1
 62
1
 40
0.000000
 41
0.000000
 66
  1
  0
VERTEX
  8
gg1
 10
7.850000
 20
16.840000
  0
VERTEX
  8
gg1
 10
7.850000
 20
16.880000
  0
SEQEND
  8
gg1
  0
POLYLINE
  8
gg1
 62
1
 40
0.000000
 41
0.000000
 66
  1
  0
VERTEX
  8
gg1
 10
7.930000
 20
16.860000
  0
VERTEX
  8
gg1
 10
7.970000
 20
16.860000
  0
SEQEND
  8
gg1
  0
POLYLINE
  8
gg1
 62
1
 40
0.000000
 41
0.000000
 66
  1
  0
VERTEX
  8
gg1
 10
7.950000
 20
16.840000
  0
VERTEX
  8
gg1
 10
7.950000
 20
16.880000
  0
SEQEND
  8
gg1
  0
POLYLINE
  8
gg1
 62
1
 40
0.000000
 41
0.000000
 66
  1
  0
VERTEX
  8
gg1
 10
8.030000
 20
16.860000
  0
VERTEX
  8
gg1
 10
8.070000
 20
16.860000
  0
SEQEND
  8
gg1
  0
POLYLINE
  8
gg1
 62
1
 40
0.000000
 41
0.000000
 66
  1
  0
VERTEX
  8
gg1
 10
8.050000
 20
16.840000
  0
VERTEX
  8
gg1
 10
8.050000
 20
16.880000
  0
SEQEND
  8
gg1
  0
POLYLINE
  8
gg1
 62
1
 40
0.000000
 41
0.000000
 66
  1
  0
VERTEX
  8
gg1
 10
8.130000
 20
16.860000
  0
VERTEX
  8
gg1
 10
8.170000
 20
16.860000
  0
SEQEND
  8
gg1
  0
POLYLINE
  8
gg1
 62
1
 40
0.000000
 41
0.000000
 66
  1
  0
VERTEX
  8
gg1
 10
8.150000
 20
16.840000
  0
VERTEX
  8
gg1
 10
8.150000
 20
16.880000
  0
SEQEND
  8
gg1
  0
POLYLINE
  8
gg1
 62
1
 40
0.000000
 41
0.000000
 66
  1
  0
VERTEX
  8
gg1
 10
8.637000
 20
16.305300
  0
VERTEX
  8
gg1
 10
8.723000
 20
16.305300
  0
SEQEND
  8
gg1
  0
POLYLINE
  8
gg1
 62
1
 40
0.000000
 41
0.000000
 66
  1
  0
VERTEX
  8
gg1
 10
8.680000
 20
16.262300
  0
VERTEX
  8
gg1
 10
8.680000
 20
16.348300
  0
SEQEND
  8
gg1
  0
POLYLINE
  8
gg1
 62
1
 40
0.000000
 41
0.000000
 66
  1
  0
VERTEX
  8
gg1
 10
8.637000
 20
16.108400
  0
VERTEX
  8
gg1
 10
8.723000
 20
16.108400
  0
SEQEND
  8
gg1
  0
POLYLINE
  8
gg1
 62
1
 40
0.000000
 41
0.000000
 66
  1
  0
VERTEX
  8
gg1
 10
8.680000
 20
16.065400
  0
VERTEX
  8
gg1
 10
8.680000
 20
16.151400
  0
SEQEND
  8
gg1
  0
POLYLINE
  8
gg1
 62
1
 40
0.000000
 41
0.000000
 66
  1
  0
VERTEX
  8
gg1
 10
8.637000
 20
15.911600
  0
VERTEX
  8
gg1
 10
8.723000
 20
15.911600
  0
SEQEND
  8
gg1
  0
POLYLINE
  8
gg1
 62
1
 40
0.000000
 41
0.000000
 66
  1
  0
VERTEX
  8
gg1
 10
8.680000
 20
15.868600
  0
VERTEX
  8
gg1
 10
8.680000
 20
15.954600
  0
SEQEND
  8
gg1
  0
POLYLINE
  8
gg1
 62
1
 40
0.000000
 41
0.000000
 66
  1
  0
VERTEX
  8
gg1
 10
8.637000
 20
15.714700
  0
VERTEX
  8
gg1
 10
8.723000
 20
15.714700
  0
SEQEND
  8
gg1
  0
POLYLINE
  8
gg1
 62
1
 40
0.000000
 41
0.000000
 66
  1
  0
VERTEX
  8
gg1
 10
8.680000
 20
15.671700
  0
VERTEX
  8
gg1
 10
8.680000
 20
15.757700
  0
SEQEND
  8
gg1
  0
POLYLINE
  8
gg1
 62
1
 40
0.000000
 41
0.000000
 66
  1
  0
VERTEX
  8
gg1
 10
8.637000
 20
16.699000
  0
VERTEX
  8
gg1
 10
8.723000
 20
16.699000
  0
SEQEND
  8
gg1
  0
POLYLINE
  8
gg1
 62
1
 40
0.000000
 41
0.000000
 66
  1
  0
VERTEX
  8
gg1
 10
8.680000
 20
16.656000
  0
VERTEX
  8
gg1
 10
8.680000
 20
16.742000
  0
SEQEND
  8
gg1
  0
POLYLINE
  8
gg1
 62
1
 40
0.000000
 41
0.000000
 66
  1
  0
VERTEX
  8
gg1
 10
8.637000
 20
16.502100
  0
VERTEX
  8
gg1
 10
8.723000
 20
16.502100
  0
SEQEND
  8
gg1
  0
POLYLINE
  8
gg1
 62
1
 40
0.000000
 41
0.000000
 66
  1
  0
VERTEX
  8
gg1
 10
8.680000
 20
16.459100
  0
VERTEX
  8
gg1
 10
8.680000
 20
16.545100
  0
SEQEND
  8
gg1
  0
POLYLINE
  8
gg1
 62
1
 40
0.000000
 41
0.000000
 66
  1
  0
VERTEX
  8
gg1
 10
8.430000
 20
15.160000
  0
VERTEX
  8
gg1
 10
8.470000
 20
15.160000
  0
SEQEND
  8
gg1
  0
POLYLINE
  8
gg1
 62
1
 40
0.000000
 41
0.000000
 66
  1
  0
VERTEX
  8
gg1
 10
8.450000
 20
15.140000
  0
VERTEX
  8
gg1
 10
8.450000
 20
15.180000
  0
SEQEND
  8
gg1
  0
POLYLINE
  8
gg1
 62
1
 40
0.000000
 41
0.000000
 66
  1
  0
VERTEX
  8
gg1
 10
8.530000
 20
15.160000
  0
VERTEX
  8
gg1
 10
8.570000
 20
15.160000
  0
SEQEND
  8
gg1
  0
POLYLINE
  8
gg1
 62
1
 40
0.000000
 41
0.000000
 66
  1
  0
VERTEX
  8
gg1
 10
8.550000
 20
15.140000
  0
VERTEX
  8
gg1
 10
8.550000
 20
15.180000
  0
SEQEND
  8
gg1
  0
ENDSEC
  0
EOF
