  0
SECTION
  2
HEADER
  9
$EXTMIN
 10
-0.153000
 20
-0.173000
  9
$EXTMAX
 10
0.313000
 20
0.455000
  9
$LIMMIN
 10
-0.153000
 20
-0.173000
  9
$LIMMAX
 10
0.313000
 20
0.455000
  9
$FILLMODE
 70
  1
  0
ENDSEC
  0
SECTION
  2
TABLES
  0
TABLE
  2
LTYPE
 70
  1
  0
LTYPE
  2
CONTINUOUS
 70
 64
  3
Solid line
 72
 65
 73
  0
 40
0.0
  0
ENDTAB
  0
TABLE
  2
LAYER
 70
 1
  0
LAYER
  2
0
 70
  0
 62
7
  6
CONTINUOUS
  0
LAYER
  2
gg1
 70
  0
 62
1
  6
CONTINUOUS
  0
ENDTAB
  0
TABLE
  2
STYLE
 70
  1
  0
STYLE
  2
STANDARD
 70
  0
 40
0.0
 41
1.0
 50
0.0
 71
  0
 42
0.2
  3
txt
  4

  0
ENDTAB
  0
ENDSEC
  0
SECTION
  2
BLOCKS
  0
BLOCK
  8
0
  2
D10
 70
64
 10
0.0
 20
0.0
  3
D10
  0
CIRCLE
  8
0
 10
0.000000
 20
0.000000
 40
0.005000
 0
ENDBLK
  8
0
  0
BLOCK
  8
0
  2
D11
 70
64
 10
0.0
 20
0.0
  3
D11
  0
CIRCLE
  8
0
 10
0.000000
 20
0.000000
 40
0.002500
 0
ENDBLK
  8
0
  0
BLOCK
  8
0
  2
D12
 70
64
 10
0.0
 20
0.0
  3
D12
  0
CIRCLE
  8
0
 10
0.000000
 20
0.000000
 40
0.003000
 0
ENDBLK
  8
0
  0
BLOCK
  8
0
  2
D13
 70
64
 10
0.0
 20
0.0
  3
D13
  0
CIRCLE
  8
0
 10
0.000000
 20
0.000000
 40
0.001000
 0
ENDBLK
  8
0
  0
ENDSEC
  0
SECTION
  2
ENTITIES
  0
POLYLINE
  8
gg1
 62
1
 40
0.000000
 41
0.000000
 66
  1
  0
VERTEX
  8
gg1
 10
-0.070000
 20
0.450000
  0
VERTEX
  8
gg1
 10
-0.010000
 20
0.450000
  0
SEQEND
  8
gg1
  0
POLYLINE
  8
gg1
 62
1
 40
0.000000
 41
0.000000
 66
  1
  0
VERTEX
  8
gg1
 10
-0.070000
 20
0.000000
  0
VERTEX
  8
gg1
 10
-0.010000
 20
0.000000
  0
SEQEND
  8
gg1
  0
POLYLINE
  8
gg1
 62
1
 40
0.000000
 41
0.000000
 66
  1
  0
VERTEX
  8
gg1
 10
-0.060000
 20
0.225000
  0
VERTEX
  8
gg1
 10
-0.060000
 20
0.450000
  0
SEQEND
  8
gg1
  0
POLYLINE
  8
gg1
 62
1
 40
0.000000
 41
0.000000
 66
  1
  0
VERTEX
  8
gg1
 10
-0.060000
 20
0.000000
  0
VERTEX
  8
gg1
 10
-0.060000
 20
0.225000
  0
SEQEND
  8
gg1
  0
POLYLINE
  8
gg1
 62
1
 40
0.000000
 41
0.000000
 66
  1
  0
VERTEX
  8
gg1
 10
-0.080000
 20
0.390000
  0
VERTEX
  8
gg1
 10
-0.060000
 20
0.450000
  0
VERTEX
  8
gg1
 10
-0.040000
 20
0.390000
  0
SEQEND
  8
gg1
  0
POLYLINE
  8
gg1
 62
1
 40
0.000000
 41
0.000000
 66
  1
  0
VERTEX
  8
gg1
 10
-0.060000
 20
0.000000
  0
VERTEX
  8
gg1
 10
-0.040000
 20
0.060000
  0
SEQEND
  8
gg1
  0
POLYLINE
  8
gg1
 62
1
 40
0.000000
 41
0.000000
 66
  1
  0
VERTEX
  8
gg1
 10
-0.080000
 20
0.060000
  0
VERTEX
  8
gg1
 10
-0.060000
 20
0.000000
  0
SEQEND
  8
gg1
  0
POLYLINE
  8
gg1
 62
1
 40
0.000000
 41
0.000000
 66
  1
  0
VERTEX
  8
gg1
 10
0.300000
 20
-0.075000
  0
VERTEX
  8
gg1
 10
0.300000
 20
-0.010000
  0
SEQEND
  8
gg1
  0
POLYLINE
  8
gg1
 62
1
 40
0.000000
 41
0.000000
 66
  1
  0
VERTEX
  8
gg1
 10
0.000000
 20
-0.075000
  0
VERTEX
  8
gg1
 10
0.000000
 20
-0.010000
  0
SEQEND
  8
gg1
  0
POLYLINE
  8
gg1
 62
1
 40
0.000000
 41
0.000000
 66
  1
  0
VERTEX
  8
gg1
 10
0.150000
 20
-0.065000
  0
VERTEX
  8
gg1
 10
0.300000
 20
-0.065000
  0
SEQEND
  8
gg1
  0
POLYLINE
  8
gg1
 62
1
 40
0.000000
 41
0.000000
 66
  1
  0
VERTEX
  8
gg1
 10
0.000000
 20
-0.065000
  0
VERTEX
  8
gg1
 10
0.150000
 20
-0.065000
  0
SEQEND
  8
gg1
  0
POLYLINE
  8
gg1
 62
1
 40
0.000000
 41
0.000000
 66
  1
  0
VERTEX
  8
gg1
 10
0.240000
 20
-0.045000
  0
VERTEX
  8
gg1
 10
0.300000
 20
-0.065000
  0
SEQEND
  8
gg1
  0
POLYLINE
  8
gg1
 62
1
 40
0.000000
 41
0.000000
 66
  1
  0
VERTEX
  8
gg1
 10
0.240000
 20
-0.085000
  0
VERTEX
  8
gg1
 10
0.300000
 20
-0.065000
  0
SEQEND
  8
gg1
  0
POLYLINE
  8
gg1
 62
1
 40
0.000000
 41
0.000000
 66
  1
  0
VERTEX
  8
gg1
 10
0.000000
 20
-0.065000
  0
VERTEX
  8
gg1
 10
0.060000
 20
-0.085000
  0
SEQEND
  8
gg1
  0
POLYLINE
  8
gg1
 62
1
 40
0.000000
 41
0.000000
 66
  1
  0
VERTEX
  8
gg1
 10
0.000000
 20
-0.065000
  0
VERTEX
  8
gg1
 10
0.060000
 20
-0.045000
  0
SEQEND
  8
gg1
  0
POLYLINE
  8
gg1
 62
1
 40
0.000000
 41
0.000000
 66
  1
  0
VERTEX
  8
gg1
 10
0.000000
 20
0.000000
  0
VERTEX
  8
gg1
 10
0.300000
 20
0.000000
  0
VERTEX
  8
gg1
 10
0.300000
 20
0.450000
  0
SEQEND
  8
gg1
  0
POLYLINE
  8
gg1
 62
1
 40
0.000000
 41
0.000000
 66
  1
  0
VERTEX
  8
gg1
 10
0.000000
 20
0.450000
  0
VERTEX
  8
gg1
 10
0.300000
 20
0.450000
  0
SEQEND
  8
gg1
  0
POLYLINE
  8
gg1
 62
1
 40
0.000000
 41
0.000000
 66
  1
  0
VERTEX
  8
gg1
 10
0.000000
 20
0.000000
  0
VERTEX
  8
gg1
 10
0.000000
 20
0.450000
  0
SEQEND
  8
gg1
  0
POLYLINE
  8
gg1
 62
1
 40
0.000000
 41
0.000000
 66
  1
  0
VERTEX
  8
gg1
 10
-0.090000
 20
0.090000
  0
VERTEX
  8
gg1
 10
-0.150000
 20
0.090000
  0
VERTEX
  8
gg1
 10
-0.120000
 20
0.060000
  0
VERTEX
  8
gg1
 10
-0.120000
 20
0.100000
  0
SEQEND
  8
gg1
  0
POLYLINE
  8
gg1
 62
1
 40
0.000000
 41
0.000000
 66
  1
  0
VERTEX
  8
gg1
 10
-0.150000
 20
0.160000
  0
VERTEX
  8
gg1
 10
-0.150000
 20
0.120000
  0
VERTEX
  8
gg1
 10
-0.120000
 20
0.120000
  0
VERTEX
  8
gg1
 10
-0.130000
 20
0.140000
  0
VERTEX
  8
gg1
 10
-0.130000
 20
0.150000
  0
VERTEX
  8
gg1
 10
-0.120000
 20
0.160000
  0
VERTEX
  8
gg1
 10
-0.100000
 20
0.160000
  0
VERTEX
  8
gg1
 10
-0.090000
 20
0.150000
  0
VERTEX
  8
gg1
 10
-0.090000
 20
0.130000
  0
VERTEX
  8
gg1
 10
-0.100000
 20
0.120000
  0
SEQEND
  8
gg1
  0
POLYLINE
  8
gg1
 62
1
 40
0.000000
 41
0.000000
 66
  1
  0
VERTEX
  8
gg1
 10
-0.140000
 20
0.180000
  0
VERTEX
  8
gg1
 10
-0.150000
 20
0.190000
  0
VERTEX
  8
gg1
 10
-0.150000
 20
0.210000
  0
VERTEX
  8
gg1
 10
-0.140000
 20
0.219900
  0
VERTEX
  8
gg1
 10
-0.100000
 20
0.219900
  0
VERTEX
  8
gg1
 10
-0.090000
 20
0.210000
  0
VERTEX
  8
gg1
 10
-0.090000
 20
0.190000
  0
VERTEX
  8
gg1
 10
-0.100000
 20
0.180000
  0
VERTEX
  8
gg1
 10
-0.140000
 20
0.180000
  0
SEQEND
  8
gg1
  0
POLYLINE
  8
gg1
 62
1
 40
0.000000
 41
0.000000
 66
  1
  0
VERTEX
  8
gg1
 10
-0.090000
 20
0.239900
  0
VERTEX
  8
gg1
 10
-0.130000
 20
0.239900
  0
VERTEX
  8
gg1
 10
-0.130000
 20
0.249900
  0
VERTEX
  8
gg1
 10
-0.120000
 20
0.259900
  0
VERTEX
  8
gg1
 10
-0.090000
 20
0.259900
  0
VERTEX
  8
gg1
 10
-0.120000
 20
0.259900
  0
VERTEX
  8
gg1
 10
-0.130000
 20
0.269900
  0
VERTEX
  8
gg1
 10
-0.120000
 20
0.279900
  0
VERTEX
  8
gg1
 10
-0.090000
 20
0.279900
  0
SEQEND
  8
gg1
  0
POLYLINE
  8
gg1
 62
1
 40
0.000000
 41
0.000000
 66
  1
  0
VERTEX
  8
gg1
 10
-0.090000
 20
0.299900
  0
VERTEX
  8
gg1
 10
-0.090000
 20
0.319900
  0
VERTEX
  8
gg1
 10
-0.090000
 20
0.309900
  0
VERTEX
  8
gg1
 10
-0.130000
 20
0.309900
  0
VERTEX
  8
gg1
 10
-0.130000
 20
0.299900
  0
SEQEND
  8
gg1
  0
POLYLINE
  8
gg1
 62
1
 40
0.000000
 41
0.000000
 66
  1
  0
VERTEX
  8
gg1
 10
-0.090000
 20
0.349900
  0
VERTEX
  8
gg1
 10
-0.090000
 20
0.369900
  0
VERTEX
  8
gg1
 10
-0.090000
 20
0.359900
  0
VERTEX
  8
gg1
 10
-0.150000
 20
0.359900
  0
VERTEX
  8
gg1
 10
-0.150000
 20
0.349900
  0
SEQEND
  8
gg1
  0
POLYLINE
  8
gg1
 62
1
 40
0.000000
 41
0.000000
 66
  1
  0
VERTEX
  8
gg1
 10
0.000000
 20
-0.120000
  0
VERTEX
  8
gg1
 10
0.010000
 20
-0.110000
  0
VERTEX
  8
gg1
 10
0.030000
 20
-0.110000
  0
VERTEX
  8
gg1
 10
0.040000
 20
-0.120000
  0
VERTEX
  8
gg1
 10
0.040000
 20
-0.130000
  0
VERTEX
  8
gg1
 10
0.030000
 20
-0.140000
  0
VERTEX
  8
gg1
 10
0.020000
 20
-0.140000
  0
VERTEX
  8
gg1
 10
0.030000
 20
-0.140000
  0
VERTEX
  8
gg1
 10
0.040000
 20
-0.150000
  0
VERTEX
  8
gg1
 10
0.040000
 20
-0.160000
  0
VERTEX
  8
gg1
 10
0.030000
 20
-0.170000
  0
VERTEX
  8
gg1
 10
0.010000
 20
-0.170000
  0
VERTEX
  8
gg1
 10
0.000000
 20
-0.160000
  0
SEQEND
  8
gg1
  0
POLYLINE
  8
gg1
 62
1
 40
0.000000
 41
0.000000
 66
  1
  0
VERTEX
  8
gg1
 10
0.060000
 20
-0.120000
  0
VERTEX
  8
gg1
 10
0.070000
 20
-0.110000
  0
VERTEX
  8
gg1
 10
0.090000
 20
-0.110000
  0
VERTEX
  8
gg1
 10
0.100000
 20
-0.120000
  0
VERTEX
  8
gg1
 10
0.100000
 20
-0.160000
  0
VERTEX
  8
gg1
 10
0.090000
 20
-0.170000
  0
VERTEX
  8
gg1
 10
0.070000
 20
-0.170000
  0
VERTEX
  8
gg1
 10
0.060000
 20
-0.160000
  0
VERTEX
  8
gg1
 10
0.060000
 20
-0.120000
  0
SEQEND
  8
gg1
  0
POLYLINE
  8
gg1
 62
1
 40
0.000000
 41
0.000000
 66
  1
  0
VERTEX
  8
gg1
 10
0.120000
 20
-0.120000
  0
VERTEX
  8
gg1
 10
0.130000
 20
-0.110000
  0
VERTEX
  8
gg1
 10
0.150000
 20
-0.110000
  0
VERTEX
  8
gg1
 10
0.159900
 20
-0.120000
  0
VERTEX
  8
gg1
 10
0.159900
 20
-0.160000
  0
VERTEX
  8
gg1
 10
0.150000
 20
-0.170000
  0
VERTEX
  8
gg1
 10
0.130000
 20
-0.170000
  0
VERTEX
  8
gg1
 10
0.120000
 20
-0.160000
  0
VERTEX
  8
gg1
 10
0.120000
 20
-0.120000
  0
SEQEND
  8
gg1
  0
POLYLINE
  8
gg1
 62
1
 40
0.000000
 41
0.000000
 66
  1
  0
VERTEX
  8
gg1
 10
0.179900
 20
-0.170000
  0
VERTEX
  8
gg1
 10
0.179900
 20
-0.130000
  0
VERTEX
  8
gg1
 10
0.189900
 20
-0.130000
  0
VERTEX
  8
gg1
 10
0.199900
 20
-0.140000
  0
VERTEX
  8
gg1
 10
0.199900
 20
-0.170000
  0
VERTEX
  8
gg1
 10
0.199900
 20
-0.140000
  0
VERTEX
  8
gg1
 10
0.209900
 20
-0.130000
  0
VERTEX
  8
gg1
 10
0.219900
 20
-0.140000
  0
VERTEX
  8
gg1
 10
0.219900
 20
-0.170000
  0
SEQEND
  8
gg1
  0
POLYLINE
  8
gg1
 62
1
 40
0.000000
 41
0.000000
 66
  1
  0
VERTEX
  8
gg1
 10
0.239900
 20
-0.170000
  0
VERTEX
  8
gg1
 10
0.259900
 20
-0.170000
  0
VERTEX
  8
gg1
 10
0.249900
 20
-0.170000
  0
VERTEX
  8
gg1
 10
0.249900
 20
-0.130000
  0
VERTEX
  8
gg1
 10
0.239900
 20
-0.130000
  0
SEQEND
  8
gg1
  0
POLYLINE
  8
gg1
 62
1
 40
0.000000
 41
0.000000
 66
  1
  0
VERTEX
  8
gg1
 10
0.289900
 20
-0.170000
  0
VERTEX
  8
gg1
 10
0.309900
 20
-0.170000
  0
VERTEX
  8
gg1
 10
0.299900
 20
-0.170000
  0
VERTEX
  8
gg1
 10
0.299900
 20
-0.110000
  0
VERTEX
  8
gg1
 10
0.289900
 20
-0.110000
  0
SEQEND
  8
gg1
  0
POLYLINE
  8
gg1
 62
1
 40
0.000000
 41
0.000000
 66
  1
  0
VERTEX
  8
gg1
 10
0.230000
 20
0.050000
  0
VERTEX
  8
gg1
 10
0.270000
 20
0.050000
  0
SEQEND
  8
gg1
  0
POLYLINE
  8
gg1
 62
1
 40
0.000000
 41
0.000000
 66
  1
  0
VERTEX
  8
gg1
 10
0.250000
 20
0.030000
  0
VERTEX
  8
gg1
 10
0.250000
 20
0.070000
  0
SEQEND
  8
gg1
  0
POLYLINE
  8
gg1
 62
1
 40
0.000000
 41
0.000000
 66
  1
  0
VERTEX
  8
gg1
 10
0.130000
 20
0.050000
  0
VERTEX
  8
gg1
 10
0.170000
 20
0.050000
  0
SEQEND
  8
gg1
  0
POLYLINE
  8
gg1
 62
1
 40
0.000000
 41
0.000000
 66
  1
  0
VERTEX
  8
gg1
 10
0.150000
 20
0.030000
  0
VERTEX
  8
gg1
 10
0.150000
 20
0.070000
  0
SEQEND
  8
gg1
  0
POLYLINE
  8
gg1
 62
1
 40
0.000000
 41
0.000000
 66
  1
  0
VERTEX
  8
gg1
 10
0.030000
 20
0.050000
  0
VERTEX
  8
gg1
 10
0.070000
 20
0.050000
  0
SEQEND
  8
gg1
  0
POLYLINE
  8
gg1
 62
1
 40
0.000000
 41
0.000000
 66
  1
  0
VERTEX
  8
gg1
 10
0.050000
 20
0.030000
  0
VERTEX
  8
gg1
 10
0.050000
 20
0.070000
  0
SEQEND
  8
gg1
  0
POLYLINE
  8
gg1
 62
1
 40
0.000000
 41
0.000000
 66
  1
  0
VERTEX
  8
gg1
 10
0.142500
 20
0.230000
  0
VERTEX
  8
gg1
 10
0.157500
 20
0.230000
  0
SEQEND
  8
gg1
  0
POLYLINE
  8
gg1
 62
1
 40
0.000000
 41
0.000000
 66
  1
  0
VERTEX
  8
gg1
 10
0.150000
 20
0.222500
  0
VERTEX
  8
gg1
 10
0.150000
 20
0.237500
  0
SEQEND
  8
gg1
  0
POLYLINE
  8
gg1
 62
1
 40
0.000000
 41
0.000000
 66
  1
  0
VERTEX
  8
gg1
 10
0.182500
 20
0.250000
  0
VERTEX
  8
gg1
 10
0.197500
 20
0.250000
  0
SEQEND
  8
gg1
  0
POLYLINE
  8
gg1
 62
1
 40
0.000000
 41
0.000000
 66
  1
  0
VERTEX
  8
gg1
 10
0.190000
 20
0.242500
  0
VERTEX
  8
gg1
 10
0.190000
 20
0.257500
  0
SEQEND
  8
gg1
  0
POLYLINE
  8
gg1
 62
1
 40
0.000000
 41
0.000000
 66
  1
  0
VERTEX
  8
gg1
 10
0.102500
 20
0.250000
  0
VERTEX
  8
gg1
 10
0.117500
 20
0.250000
  0
SEQEND
  8
gg1
  0
POLYLINE
  8
gg1
 62
1
 40
0.000000
 41
0.000000
 66
  1
  0
VERTEX
  8
gg1
 10
0.110000
 20
0.242500
  0
VERTEX
  8
gg1
 10
0.110000
 20
0.257500
  0
SEQEND
  8
gg1
  0
POLYLINE
  8
gg1
 62
1
 40
0.000000
 41
0.000000
 66
  1
  0
VERTEX
  8
gg1
 10
0.072500
 20
0.250000
  0
VERTEX
  8
gg1
 10
0.087500
 20
0.250000
  0
SEQEND
  8
gg1
  0
POLYLINE
  8
gg1
 62
1
 40
0.000000
 41
0.000000
 66
  1
  0
VERTEX
  8
gg1
 10
0.080000
 20
0.242500
  0
VERTEX
  8
gg1
 10
0.080000
 20
0.257500
  0
SEQEND
  8
gg1
  0
POLYLINE
  8
gg1
 62
1
 40
0.000000
 41
0.000000
 66
  1
  0
VERTEX
  8
gg1
 10
0.212500
 20
0.250000
  0
VERTEX
  8
gg1
 10
0.227500
 20
0.250000
  0
SEQEND
  8
gg1
  0
POLYLINE
  8
gg1
 62
1
 40
0.000000
 41
0.000000
 66
  1
  0
VERTEX
  8
gg1
 10
0.220000
 20
0.242500
  0
VERTEX
  8
gg1
 10
0.220000
 20
0.257500
  0
SEQEND
  8
gg1
  0
POLYLINE
  8
gg1
 62
1
 40
0.000000
 41
0.000000
 66
  1
  0
VERTEX
  8
gg1
 10
0.252500
 20
0.240000
  0
VERTEX
  8
gg1
 10
0.267500
 20
0.240000
  0
SEQEND
  8
gg1
  0
POLYLINE
  8
gg1
 62
1
 40
0.000000
 41
0.000000
 66
  1
  0
VERTEX
  8
gg1
 10
0.260000
 20
0.232500
  0
VERTEX
  8
gg1
 10
0.260000
 20
0.247500
  0
SEQEND
  8
gg1
  0
POLYLINE
  8
gg1
 62
1
 40
0.000000
 41
0.000000
 66
  1
  0
VERTEX
  8
gg1
 10
0.032500
 20
0.240000
  0
VERTEX
  8
gg1
 10
0.047500
 20
0.240000
  0
SEQEND
  8
gg1
  0
POLYLINE
  8
gg1
 62
1
 40
0.000000
 41
0.000000
 66
  1
  0
VERTEX
  8
gg1
 10
0.040000
 20
0.232500
  0
VERTEX
  8
gg1
 10
0.040000
 20
0.247500
  0
SEQEND
  8
gg1
  0
POLYLINE
  8
gg1
 62
1
 40
0.000000
 41
0.000000
 66
  1
  0
VERTEX
  8
gg1
 10
0.136600
 20
0.410000
  0
VERTEX
  8
gg1
 10
0.151600
 20
0.410000
  0
SEQEND
  8
gg1
  0
POLYLINE
  8
gg1
 62
1
 40
0.000000
 41
0.000000
 66
  1
  0
VERTEX
  8
gg1
 10
0.144100
 20
0.402500
  0
VERTEX
  8
gg1
 10
0.144100
 20
0.417500
  0
SEQEND
  8
gg1
  0
ENDSEC
  0
EOF
