  0
SECTION
  2
HEADER
  9
$EXTMIN
 10
-0.142000
 20
-0.146000
  9
$EXTMAX
 10
0.405000
 20
0.505000
  9
$LIMMIN
 10
-0.142000
 20
-0.146000
  9
$LIMMAX
 10
0.405000
 20
0.505000
  9
$FILLMODE
 70
  1
  0
ENDSEC
  0
SECTION
  2
TABLES
  0
TABLE
  2
LTYPE
 70
  1
  0
LTYPE
  2
CONTINUOUS
 70
 64
  3
Solid line
 72
 65
 73
  0
 40
0.0
  0
ENDTAB
  0
TABLE
  2
LAYER
 70
 1
  0
LAYER
  2
0
 70
  0
 62
7
  6
CONTINUOUS
  0
LAYER
  2
gg1
 70
  0
 62
1
  6
CONTINUOUS
  0
ENDTAB
  0
TABLE
  2
STYLE
 70
  1
  0
STYLE
  2
STANDARD
 70
  0
 40
0.0
 41
1.0
 50
0.0
 71
  0
 42
0.2
  3
txt
  4

  0
ENDTAB
  0
ENDSEC
  0
SECTION
  2
BLOCKS
  0
BLOCK
  8
0
  2
D10
 70
64
 10
0.0
 20
0.0
  3
D10
  0
CIRCLE
  8
0
 10
0.000000
 20
0.000000
 40
0.005000
 0
ENDBLK
  8
0
  0
BLOCK
  8
0
  2
D11
 70
64
 10
0.0
 20
0.0
  3
D11
  0
CIRCLE
  8
0
 10
0.000000
 20
0.000000
 40
0.002500
 0
ENDBLK
  8
0
  0
BLOCK
  8
0
  2
D12
 70
64
 10
0.0
 20
0.0
  3
D12
  0
CIRCLE
  8
0
 10
0.000000
 20
0.000000
 40
0.003000
 0
ENDBLK
  8
0
  0
ENDSEC
  0
SECTION
  2
ENTITIES
  0
POLYLINE
  8
gg1
 62
1
 40
0.000000
 41
0.000000
 66
  1
  0
VERTEX
  8
gg1
 10
0.400000
 20
-0.131000
  0
VERTEX
  8
gg1
 10
0.400000
 20
0.000000
  0
SEQEND
  8
gg1
  0
POLYLINE
  8
gg1
 62
1
 40
0.000000
 41
0.000000
 66
  1
  0
VERTEX
  8
gg1
 10
0.000000
 20
-0.131000
  0
VERTEX
  8
gg1
 10
0.000000
 20
-0.010000
  0
SEQEND
  8
gg1
  0
POLYLINE
  8
gg1
 62
1
 40
0.000000
 41
0.000000
 66
  1
  0
VERTEX
  8
gg1
 10
0.200000
 20
-0.121000
  0
VERTEX
  8
gg1
 10
0.400000
 20
-0.121000
  0
SEQEND
  8
gg1
  0
POLYLINE
  8
gg1
 62
1
 40
0.000000
 41
0.000000
 66
  1
  0
VERTEX
  8
gg1
 10
0.000000
 20
-0.121000
  0
VERTEX
  8
gg1
 10
0.200000
 20
-0.121000
  0
SEQEND
  8
gg1
  0
POLYLINE
  8
gg1
 62
1
 40
0.000000
 41
0.000000
 66
  1
  0
VERTEX
  8
gg1
 10
0.340000
 20
-0.101000
  0
VERTEX
  8
gg1
 10
0.400000
 20
-0.121000
  0
SEQEND
  8
gg1
  0
POLYLINE
  8
gg1
 62
1
 40
0.000000
 41
0.000000
 66
  1
  0
VERTEX
  8
gg1
 10
0.340000
 20
-0.141000
  0
VERTEX
  8
gg1
 10
0.400000
 20
-0.121000
  0
SEQEND
  8
gg1
  0
POLYLINE
  8
gg1
 62
1
 40
0.000000
 41
0.000000
 66
  1
  0
VERTEX
  8
gg1
 10
0.000000
 20
-0.121000
  0
VERTEX
  8
gg1
 10
0.060000
 20
-0.141000
  0
SEQEND
  8
gg1
  0
POLYLINE
  8
gg1
 62
1
 40
0.000000
 41
0.000000
 66
  1
  0
VERTEX
  8
gg1
 10
0.000000
 20
-0.121000
  0
VERTEX
  8
gg1
 10
0.060000
 20
-0.101000
  0
SEQEND
  8
gg1
  0
POLYLINE
  8
gg1
 62
1
 40
0.000000
 41
0.000000
 66
  1
  0
VERTEX
  8
gg1
 10
-0.125000
 20
0.000000
  0
VERTEX
  8
gg1
 10
-0.010000
 20
0.000000
  0
SEQEND
  8
gg1
  0
POLYLINE
  8
gg1
 62
1
 40
0.000000
 41
0.000000
 66
  1
  0
VERTEX
  8
gg1
 10
-0.125000
 20
0.500000
  0
VERTEX
  8
gg1
 10
-0.010000
 20
0.500000
  0
SEQEND
  8
gg1
  0
POLYLINE
  8
gg1
 62
1
 40
0.000000
 41
0.000000
 66
  1
  0
VERTEX
  8
gg1
 10
-0.115000
 20
0.000000
  0
VERTEX
  8
gg1
 10
-0.115000
 20
0.063100
  0
SEQEND
  8
gg1
  0
POLYLINE
  8
gg1
 62
1
 40
0.000000
 41
0.000000
 66
  1
  0
VERTEX
  8
gg1
 10
-0.115000
 20
0.404900
  0
VERTEX
  8
gg1
 10
-0.115000
 20
0.500000
  0
SEQEND
  8
gg1
  0
POLYLINE
  8
gg1
 62
1
 40
0.000000
 41
0.000000
 66
  1
  0
VERTEX
  8
gg1
 10
-0.115000
 20
0.000000
  0
VERTEX
  8
gg1
 10
-0.095000
 20
0.060000
  0
SEQEND
  8
gg1
  0
POLYLINE
  8
gg1
 62
1
 40
0.000000
 41
0.000000
 66
  1
  0
VERTEX
  8
gg1
 10
-0.135000
 20
0.060000
  0
VERTEX
  8
gg1
 10
-0.115000
 20
0.000000
  0
SEQEND
  8
gg1
  0
POLYLINE
  8
gg1
 62
1
 40
0.000000
 41
0.000000
 66
  1
  0
VERTEX
  8
gg1
 10
-0.135000
 20
0.440000
  0
VERTEX
  8
gg1
 10
-0.115000
 20
0.500000
  0
VERTEX
  8
gg1
 10
-0.095000
 20
0.440000
  0
SEQEND
  8
gg1
  0
POLYLINE
  8
gg1
 62
1
 40
0.000000
 41
0.000000
 66
  1
  0
VERTEX
  8
gg1
 10
0.000000
 20
0.000000
  0
VERTEX
  8
gg1
 10
0.000000
 20
0.500000
  0
VERTEX
  8
gg1
 10
0.400000
 20
0.500000
  0
SEQEND
  8
gg1
  0
POLYLINE
  8
gg1
 62
1
 40
0.000000
 41
0.000000
 66
  1
  0
VERTEX
  8
gg1
 10
0.000000
 20
0.000000
  0
VERTEX
  8
gg1
 10
0.400000
 20
0.000000
  0
VERTEX
  8
gg1
 10
0.400000
 20
0.500000
  0
SEQEND
  8
gg1
  0
POLYLINE
  8
gg1
 62
1
 40
0.000000
 41
0.000000
 66
  1
  0
VERTEX
  8
gg1
 10
0.162000
 20
0.402000
  0
VERTEX
  8
gg1
 10
0.182000
 20
0.402000
  0
SEQEND
  8
gg1
  0
POLYLINE
  8
gg1
 62
1
 40
0.000000
 41
0.000000
 66
  1
  0
VERTEX
  8
gg1
 10
0.172000
 20
0.392000
  0
VERTEX
  8
gg1
 10
0.172000
 20
0.412000
  0
SEQEND
  8
gg1
  0
POLYLINE
  8
gg1
 62
1
 40
0.000000
 41
0.000000
 66
  1
  0
VERTEX
  8
gg1
 10
0.030000
 20
0.050000
  0
VERTEX
  8
gg1
 10
0.070000
 20
0.050000
  0
SEQEND
  8
gg1
  0
POLYLINE
  8
gg1
 62
1
 40
0.000000
 41
0.000000
 66
  1
  0
VERTEX
  8
gg1
 10
0.050000
 20
0.030000
  0
VERTEX
  8
gg1
 10
0.050000
 20
0.070000
  0
SEQEND
  8
gg1
  0
POLYLINE
  8
gg1
 62
1
 40
0.000000
 41
0.000000
 66
  1
  0
VERTEX
  8
gg1
 10
0.030000
 20
0.150000
  0
VERTEX
  8
gg1
 10
0.070000
 20
0.150000
  0
SEQEND
  8
gg1
  0
POLYLINE
  8
gg1
 62
1
 40
0.000000
 41
0.000000
 66
  1
  0
VERTEX
  8
gg1
 10
0.050000
 20
0.130000
  0
VERTEX
  8
gg1
 10
0.050000
 20
0.170000
  0
SEQEND
  8
gg1
  0
POLYLINE
  8
gg1
 62
1
 40
0.000000
 41
0.000000
 66
  1
  0
VERTEX
  8
gg1
 10
0.030000
 20
0.250000
  0
VERTEX
  8
gg1
 10
0.070000
 20
0.250000
  0
SEQEND
  8
gg1
  0
POLYLINE
  8
gg1
 62
1
 40
0.000000
 41
0.000000
 66
  1
  0
VERTEX
  8
gg1
 10
0.050000
 20
0.230000
  0
VERTEX
  8
gg1
 10
0.050000
 20
0.270000
  0
SEQEND
  8
gg1
  0
POLYLINE
  8
gg1
 62
1
 40
0.000000
 41
0.000000
 66
  1
  0
VERTEX
  8
gg1
 10
0.030000
 20
0.350000
  0
VERTEX
  8
gg1
 10
0.070000
 20
0.350000
  0
SEQEND
  8
gg1
  0
POLYLINE
  8
gg1
 62
1
 40
0.000000
 41
0.000000
 66
  1
  0
VERTEX
  8
gg1
 10
0.050000
 20
0.330000
  0
VERTEX
  8
gg1
 10
0.050000
 20
0.370000
  0
SEQEND
  8
gg1
  0
POLYLINE
  8
gg1
 62
1
 40
0.000000
 41
0.000000
 66
  1
  0
VERTEX
  8
gg1
 10
0.030000
 20
0.450000
  0
VERTEX
  8
gg1
 10
0.070000
 20
0.450000
  0
SEQEND
  8
gg1
  0
POLYLINE
  8
gg1
 62
1
 40
0.000000
 41
0.000000
 66
  1
  0
VERTEX
  8
gg1
 10
0.050000
 20
0.430000
  0
VERTEX
  8
gg1
 10
0.050000
 20
0.470000
  0
SEQEND
  8
gg1
  0
POLYLINE
  8
gg1
 62
1
 40
0.000000
 41
0.000000
 66
  1
  0
VERTEX
  8
gg1
 10
0.330000
 20
0.050000
  0
VERTEX
  8
gg1
 10
0.370000
 20
0.050000
  0
SEQEND
  8
gg1
  0
POLYLINE
  8
gg1
 62
1
 40
0.000000
 41
0.000000
 66
  1
  0
VERTEX
  8
gg1
 10
0.350000
 20
0.030000
  0
VERTEX
  8
gg1
 10
0.350000
 20
0.070000
  0
SEQEND
  8
gg1
  0
POLYLINE
  8
gg1
 62
1
 40
0.000000
 41
0.000000
 66
  1
  0
VERTEX
  8
gg1
 10
0.330000
 20
0.150000
  0
VERTEX
  8
gg1
 10
0.370000
 20
0.150000
  0
SEQEND
  8
gg1
  0
POLYLINE
  8
gg1
 62
1
 40
0.000000
 41
0.000000
 66
  1
  0
VERTEX
  8
gg1
 10
0.350000
 20
0.130000
  0
VERTEX
  8
gg1
 10
0.350000
 20
0.170000
  0
SEQEND
  8
gg1
  0
POLYLINE
  8
gg1
 62
1
 40
0.000000
 41
0.000000
 66
  1
  0
VERTEX
  8
gg1
 10
0.330000
 20
0.250000
  0
VERTEX
  8
gg1
 10
0.370000
 20
0.250000
  0
SEQEND
  8
gg1
  0
POLYLINE
  8
gg1
 62
1
 40
0.000000
 41
0.000000
 66
  1
  0
VERTEX
  8
gg1
 10
0.350000
 20
0.230000
  0
VERTEX
  8
gg1
 10
0.350000
 20
0.270000
  0
SEQEND
  8
gg1
  0
POLYLINE
  8
gg1
 62
1
 40
0.000000
 41
0.000000
 66
  1
  0
VERTEX
  8
gg1
 10
0.330000
 20
0.350000
  0
VERTEX
  8
gg1
 10
0.370000
 20
0.350000
  0
SEQEND
  8
gg1
  0
POLYLINE
  8
gg1
 62
1
 40
0.000000
 41
0.000000
 66
  1
  0
VERTEX
  8
gg1
 10
0.350000
 20
0.330000
  0
VERTEX
  8
gg1
 10
0.350000
 20
0.370000
  0
SEQEND
  8
gg1
  0
POLYLINE
  8
gg1
 62
1
 40
0.000000
 41
0.000000
 66
  1
  0
VERTEX
  8
gg1
 10
0.330000
 20
0.450000
  0
VERTEX
  8
gg1
 10
0.370000
 20
0.450000
  0
SEQEND
  8
gg1
  0
POLYLINE
  8
gg1
 62
1
 40
0.000000
 41
0.000000
 66
  1
  0
VERTEX
  8
gg1
 10
0.350000
 20
0.430000
  0
VERTEX
  8
gg1
 10
0.350000
 20
0.470000
  0
SEQEND
  8
gg1
  0
POLYLINE
  8
gg1
 62
1
 40
0.000000
 41
0.000000
 66
  1
  0
VERTEX
  8
gg1
 10
0.217500
 20
0.185700
  0
VERTEX
  8
gg1
 10
0.232500
 20
0.185700
  0
SEQEND
  8
gg1
  0
POLYLINE
  8
gg1
 62
1
 40
0.000000
 41
0.000000
 66
  1
  0
VERTEX
  8
gg1
 10
0.225000
 20
0.178200
  0
VERTEX
  8
gg1
 10
0.225000
 20
0.193200
  0
SEQEND
  8
gg1
  0
POLYLINE
  8
gg1
 62
1
 40
0.000000
 41
0.000000
 66
  1
  0
VERTEX
  8
gg1
 10
0.217500
 20
0.154300
  0
VERTEX
  8
gg1
 10
0.232500
 20
0.154300
  0
SEQEND
  8
gg1
  0
POLYLINE
  8
gg1
 62
1
 40
0.000000
 41
0.000000
 66
  1
  0
VERTEX
  8
gg1
 10
0.225000
 20
0.146800
  0
VERTEX
  8
gg1
 10
0.225000
 20
0.161800
  0
SEQEND
  8
gg1
  0
POLYLINE
  8
gg1
 62
1
 40
0.000000
 41
0.000000
 66
  1
  0
VERTEX
  8
gg1
 10
0.107100
 20
0.148300
  0
VERTEX
  8
gg1
 10
0.122100
 20
0.148300
  0
SEQEND
  8
gg1
  0
POLYLINE
  8
gg1
 62
1
 40
0.000000
 41
0.000000
 66
  1
  0
VERTEX
  8
gg1
 10
0.114600
 20
0.140800
  0
VERTEX
  8
gg1
 10
0.114600
 20
0.155800
  0
SEQEND
  8
gg1
  0
POLYLINE
  8
gg1
 62
1
 40
0.000000
 41
0.000000
 66
  1
  0
VERTEX
  8
gg1
 10
0.289500
 20
0.070000
  0
VERTEX
  8
gg1
 10
0.304500
 20
0.070000
  0
SEQEND
  8
gg1
  0
POLYLINE
  8
gg1
 62
1
 40
0.000000
 41
0.000000
 66
  1
  0
VERTEX
  8
gg1
 10
0.297000
 20
0.062500
  0
VERTEX
  8
gg1
 10
0.297000
 20
0.077500
  0
SEQEND
  8
gg1
  0
POLYLINE
  8
gg1
 62
1
 40
0.000000
 41
0.000000
 66
  1
  0
VERTEX
  8
gg1
 10
0.157500
 20
0.080000
  0
VERTEX
  8
gg1
 10
0.172500
 20
0.080000
  0
SEQEND
  8
gg1
  0
POLYLINE
  8
gg1
 62
1
 40
0.000000
 41
0.000000
 66
  1
  0
VERTEX
  8
gg1
 10
0.165000
 20
0.072500
  0
VERTEX
  8
gg1
 10
0.165000
 20
0.087500
  0
SEQEND
  8
gg1
  0
POLYLINE
  8
gg1
 62
1
 40
0.000000
 41
0.000000
 66
  1
  0
VERTEX
  8
gg1
 10
0.244500
 20
0.243000
  0
VERTEX
  8
gg1
 10
0.259500
 20
0.243000
  0
SEQEND
  8
gg1
  0
POLYLINE
  8
gg1
 62
1
 40
0.000000
 41
0.000000
 66
  1
  0
VERTEX
  8
gg1
 10
0.252000
 20
0.235500
  0
VERTEX
  8
gg1
 10
0.252000
 20
0.250500
  0
SEQEND
  8
gg1
  0
POLYLINE
  8
gg1
 62
1
 40
0.000000
 41
0.000000
 66
  1
  0
VERTEX
  8
gg1
 10
0.227500
 20
0.272000
  0
VERTEX
  8
gg1
 10
0.242500
 20
0.272000
  0
SEQEND
  8
gg1
  0
POLYLINE
  8
gg1
 62
1
 40
0.000000
 41
0.000000
 66
  1
  0
VERTEX
  8
gg1
 10
0.235000
 20
0.264500
  0
VERTEX
  8
gg1
 10
0.235000
 20
0.279500
  0
SEQEND
  8
gg1
  0
POLYLINE
  8
gg1
 62
1
 40
0.000000
 41
0.000000
 66
  1
  0
VERTEX
  8
gg1
 10
0.290500
 20
0.040000
  0
VERTEX
  8
gg1
 10
0.305500
 20
0.040000
  0
SEQEND
  8
gg1
  0
POLYLINE
  8
gg1
 62
1
 40
0.000000
 41
0.000000
 66
  1
  0
VERTEX
  8
gg1
 10
0.298000
 20
0.032500
  0
VERTEX
  8
gg1
 10
0.298000
 20
0.047500
  0
SEQEND
  8
gg1
  0
POLYLINE
  8
gg1
 62
1
 40
0.000000
 41
0.000000
 66
  1
  0
VERTEX
  8
gg1
 10
0.292500
 20
0.295000
  0
VERTEX
  8
gg1
 10
0.307500
 20
0.295000
  0
SEQEND
  8
gg1
  0
POLYLINE
  8
gg1
 62
1
 40
0.000000
 41
0.000000
 66
  1
  0
VERTEX
  8
gg1
 10
0.300000
 20
0.287500
  0
VERTEX
  8
gg1
 10
0.300000
 20
0.302500
  0
SEQEND
  8
gg1
  0
POLYLINE
  8
gg1
 62
1
 40
0.000000
 41
0.000000
 66
  1
  0
VERTEX
  8
gg1
 10
0.291500
 20
0.101000
  0
VERTEX
  8
gg1
 10
0.306500
 20
0.101000
  0
SEQEND
  8
gg1
  0
POLYLINE
  8
gg1
 62
1
 40
0.000000
 41
0.000000
 66
  1
  0
VERTEX
  8
gg1
 10
0.299000
 20
0.093500
  0
VERTEX
  8
gg1
 10
0.299000
 20
0.108500
  0
SEQEND
  8
gg1
  0
POLYLINE
  8
gg1
 62
1
 40
0.000000
 41
0.000000
 66
  1
  0
VERTEX
  8
gg1
 10
0.125500
 20
0.080000
  0
VERTEX
  8
gg1
 10
0.140500
 20
0.080000
  0
SEQEND
  8
gg1
  0
POLYLINE
  8
gg1
 62
1
 40
0.000000
 41
0.000000
 66
  1
  0
VERTEX
  8
gg1
 10
0.133000
 20
0.072500
  0
VERTEX
  8
gg1
 10
0.133000
 20
0.087500
  0
SEQEND
  8
gg1
  0
POLYLINE
  8
gg1
 62
1
 40
0.000000
 41
0.000000
 66
  1
  0
VERTEX
  8
gg1
 10
0.095500
 20
0.350000
  0
VERTEX
  8
gg1
 10
0.110500
 20
0.350000
  0
SEQEND
  8
gg1
  0
POLYLINE
  8
gg1
 62
1
 40
0.000000
 41
0.000000
 66
  1
  0
VERTEX
  8
gg1
 10
0.103000
 20
0.342500
  0
VERTEX
  8
gg1
 10
0.103000
 20
0.357500
  0
SEQEND
  8
gg1
  0
POLYLINE
  8
gg1
 62
1
 40
0.000000
 41
0.000000
 66
  1
  0
VERTEX
  8
gg1
 10
0.168500
 20
0.338000
  0
VERTEX
  8
gg1
 10
0.183500
 20
0.338000
  0
SEQEND
  8
gg1
  0
POLYLINE
  8
gg1
 62
1
 40
0.000000
 41
0.000000
 66
  1
  0
VERTEX
  8
gg1
 10
0.176000
 20
0.330500
  0
VERTEX
  8
gg1
 10
0.176000
 20
0.345500
  0
SEQEND
  8
gg1
  0
POLYLINE
  8
gg1
 62
1
 40
0.000000
 41
0.000000
 66
  1
  0
VERTEX
  8
gg1
 10
0.124500
 20
0.186000
  0
VERTEX
  8
gg1
 10
0.139500
 20
0.186000
  0
SEQEND
  8
gg1
  0
POLYLINE
  8
gg1
 62
1
 40
0.000000
 41
0.000000
 66
  1
  0
VERTEX
  8
gg1
 10
0.132000
 20
0.178500
  0
VERTEX
  8
gg1
 10
0.132000
 20
0.193500
  0
SEQEND
  8
gg1
  0
POLYLINE
  8
gg1
 62
1
 40
0.000000
 41
0.000000
 66
  1
  0
VERTEX
  8
gg1
 10
0.059000
 20
-0.082000
  0
VERTEX
  8
gg1
 10
0.059000
 20
-0.022000
  0
VERTEX
  8
gg1
 10
0.029100
 20
-0.052000
  0
VERTEX
  8
gg1
 10
0.069000
 20
-0.052000
  0
SEQEND
  8
gg1
  0
POLYLINE
  8
gg1
 62
1
 40
0.000000
 41
0.000000
 66
  1
  0
VERTEX
  8
gg1
 10
0.089000
 20
-0.032000
  0
VERTEX
  8
gg1
 10
0.099000
 20
-0.022000
  0
VERTEX
  8
gg1
 10
0.119000
 20
-0.022000
  0
VERTEX
  8
gg1
 10
0.129000
 20
-0.032000
  0
VERTEX
  8
gg1
 10
0.129000
 20
-0.072000
  0
VERTEX
  8
gg1
 10
0.119000
 20
-0.082000
  0
VERTEX
  8
gg1
 10
0.099000
 20
-0.082000
  0
VERTEX
  8
gg1
 10
0.089000
 20
-0.072000
  0
VERTEX
  8
gg1
 10
0.089000
 20
-0.032000
  0
SEQEND
  8
gg1
  0
POLYLINE
  8
gg1
 62
1
 40
0.000000
 41
0.000000
 66
  1
  0
VERTEX
  8
gg1
 10
0.149000
 20
-0.032000
  0
VERTEX
  8
gg1
 10
0.159000
 20
-0.022000
  0
VERTEX
  8
gg1
 10
0.179000
 20
-0.022000
  0
VERTEX
  8
gg1
 10
0.189000
 20
-0.032000
  0
VERTEX
  8
gg1
 10
0.189000
 20
-0.072000
  0
VERTEX
  8
gg1
 10
0.179000
 20
-0.082000
  0
VERTEX
  8
gg1
 10
0.159000
 20
-0.082000
  0
VERTEX
  8
gg1
 10
0.149000
 20
-0.072000
  0
VERTEX
  8
gg1
 10
0.149000
 20
-0.032000
  0
SEQEND
  8
gg1
  0
POLYLINE
  8
gg1
 62
1
 40
0.000000
 41
0.000000
 66
  1
  0
VERTEX
  8
gg1
 10
0.209000
 20
-0.082000
  0
VERTEX
  8
gg1
 10
0.209000
 20
-0.042000
  0
VERTEX
  8
gg1
 10
0.219000
 20
-0.042000
  0
VERTEX
  8
gg1
 10
0.229000
 20
-0.052000
  0
VERTEX
  8
gg1
 10
0.229000
 20
-0.082000
  0
VERTEX
  8
gg1
 10
0.229000
 20
-0.052000
  0
VERTEX
  8
gg1
 10
0.239000
 20
-0.042000
  0
VERTEX
  8
gg1
 10
0.249000
 20
-0.052000
  0
VERTEX
  8
gg1
 10
0.249000
 20
-0.082000
  0
SEQEND
  8
gg1
  0
POLYLINE
  8
gg1
 62
1
 40
0.000000
 41
0.000000
 66
  1
  0
VERTEX
  8
gg1
 10
0.269000
 20
-0.082000
  0
VERTEX
  8
gg1
 10
0.289000
 20
-0.082000
  0
VERTEX
  8
gg1
 10
0.279000
 20
-0.082000
  0
VERTEX
  8
gg1
 10
0.279000
 20
-0.042000
  0
VERTEX
  8
gg1
 10
0.269000
 20
-0.042000
  0
SEQEND
  8
gg1
  0
POLYLINE
  8
gg1
 62
1
 40
0.000000
 41
0.000000
 66
  1
  0
VERTEX
  8
gg1
 10
0.319000
 20
-0.082000
  0
VERTEX
  8
gg1
 10
0.339000
 20
-0.082000
  0
VERTEX
  8
gg1
 10
0.329000
 20
-0.082000
  0
VERTEX
  8
gg1
 10
0.329000
 20
-0.022000
  0
VERTEX
  8
gg1
 10
0.319000
 20
-0.022000
  0
SEQEND
  8
gg1
  0
POLYLINE
  8
gg1
 62
1
 40
0.000000
 41
0.000000
 66
  1
  0
VERTEX
  8
gg1
 10
-0.139000
 20
0.119000
  0
VERTEX
  8
gg1
 10
-0.139000
 20
0.079000
  0
VERTEX
  8
gg1
 10
-0.109000
 20
0.079000
  0
VERTEX
  8
gg1
 10
-0.119000
 20
0.099000
  0
VERTEX
  8
gg1
 10
-0.119000
 20
0.109000
  0
VERTEX
  8
gg1
 10
-0.109000
 20
0.119000
  0
VERTEX
  8
gg1
 10
-0.089000
 20
0.119000
  0
VERTEX
  8
gg1
 10
-0.079000
 20
0.109000
  0
VERTEX
  8
gg1
 10
-0.079000
 20
0.089000
  0
VERTEX
  8
gg1
 10
-0.089000
 20
0.079000
  0
SEQEND
  8
gg1
  0
POLYLINE
  8
gg1
 62
1
 40
0.000000
 41
0.000000
 66
  1
  0
VERTEX
  8
gg1
 10
-0.129000
 20
0.139000
  0
VERTEX
  8
gg1
 10
-0.139000
 20
0.149000
  0
VERTEX
  8
gg1
 10
-0.139000
 20
0.169000
  0
VERTEX
  8
gg1
 10
-0.129000
 20
0.179000
  0
VERTEX
  8
gg1
 10
-0.089000
 20
0.179000
  0
VERTEX
  8
gg1
 10
-0.079000
 20
0.169000
  0
VERTEX
  8
gg1
 10
-0.079000
 20
0.149000
  0
VERTEX
  8
gg1
 10
-0.089000
 20
0.139000
  0
VERTEX
  8
gg1
 10
-0.129000
 20
0.139000
  0
SEQEND
  8
gg1
  0
POLYLINE
  8
gg1
 62
1
 40
0.000000
 41
0.000000
 66
  1
  0
VERTEX
  8
gg1
 10
-0.129000
 20
0.199000
  0
VERTEX
  8
gg1
 10
-0.139000
 20
0.209000
  0
VERTEX
  8
gg1
 10
-0.139000
 20
0.229000
  0
VERTEX
  8
gg1
 10
-0.129000
 20
0.239000
  0
VERTEX
  8
gg1
 10
-0.089000
 20
0.239000
  0
VERTEX
  8
gg1
 10
-0.079000
 20
0.229000
  0
VERTEX
  8
gg1
 10
-0.079000
 20
0.209000
  0
VERTEX
  8
gg1
 10
-0.089000
 20
0.199000
  0
VERTEX
  8
gg1
 10
-0.129000
 20
0.199000
  0
SEQEND
  8
gg1
  0
POLYLINE
  8
gg1
 62
1
 40
0.000000
 41
0.000000
 66
  1
  0
VERTEX
  8
gg1
 10
-0.079000
 20
0.259000
  0
VERTEX
  8
gg1
 10
-0.119000
 20
0.259000
  0
VERTEX
  8
gg1
 10
-0.119000
 20
0.269000
  0
VERTEX
  8
gg1
 10
-0.109000
 20
0.279000
  0
VERTEX
  8
gg1
 10
-0.079000
 20
0.279000
  0
VERTEX
  8
gg1
 10
-0.109000
 20
0.279000
  0
VERTEX
  8
gg1
 10
-0.119000
 20
0.289000
  0
VERTEX
  8
gg1
 10
-0.109000
 20
0.299000
  0
VERTEX
  8
gg1
 10
-0.079000
 20
0.299000
  0
SEQEND
  8
gg1
  0
POLYLINE
  8
gg1
 62
1
 40
0.000000
 41
0.000000
 66
  1
  0
VERTEX
  8
gg1
 10
-0.079000
 20
0.319000
  0
VERTEX
  8
gg1
 10
-0.079000
 20
0.339000
  0
VERTEX
  8
gg1
 10
-0.079000
 20
0.329000
  0
VERTEX
  8
gg1
 10
-0.119000
 20
0.329000
  0
VERTEX
  8
gg1
 10
-0.119000
 20
0.319000
  0
SEQEND
  8
gg1
  0
POLYLINE
  8
gg1
 62
1
 40
0.000000
 41
0.000000
 66
  1
  0
VERTEX
  8
gg1
 10
-0.079000
 20
0.369000
  0
VERTEX
  8
gg1
 10
-0.079000
 20
0.388900
  0
VERTEX
  8
gg1
 10
-0.079000
 20
0.379000
  0
VERTEX
  8
gg1
 10
-0.139000
 20
0.379000
  0
VERTEX
  8
gg1
 10
-0.139000
 20
0.369000
  0
SEQEND
  8
gg1
  0
ENDSEC
  0
EOF
