ISO-10303-21;
HEADER;
FILE_DESCRIPTION (( 'STEP AP214' ),
    '1' );
FILE_NAME ('magnetic-encoder-disc-for-micro-metal-gearmotors-w1r02a.step',
    '2017-01-16T23:29:06',
    ( '' ),
    ( '' ),
    'SwSTEP 2.0',
    'SolidWorks 2016',
    '' );
FILE_SCHEMA (( 'AUTOMOTIVE_DESIGN' ));
ENDSEC;

DATA;
#1 = CARTESIAN_POINT ( 'NONE',  ( 0.5000000000000000000, 6.123233995736766000E-017, 0.0000000000000000000 ) ) ;
#2 = AXIS2_PLACEMENT_3D ( 'NONE', #37, #6, #18 ) ;
#3 = CARTESIAN_POINT ( 'NONE',  ( 0.0000000000000000000, 0.0000000000000000000, 2.000000000000000000 ) ) ;
#4 = CYLINDRICAL_SURFACE ( 'NONE', #209, 3.825000000000000200 ) ;
#5 = EDGE_LOOP ( 'NONE', ( #121, #101, #26, #159 ) ) ;
#6 = DIRECTION ( 'NONE',  ( 0.0000000000000000000, 0.0000000000000000000, 1.000000000000000000 ) ) ;
#7 = CARTESIAN_POINT ( 'NONE',  ( 0.0000000000000000000, 0.0000000000000000000, 2.000000000000000000 ) ) ;
#8 = CARTESIAN_POINT ( 'NONE',  ( 0.0000000000000000000, 0.0000000000000000000, 0.0000000000000000000 ) ) ;
#9 = DIRECTION ( 'NONE',  ( 1.000000000000000000, 0.0000000000000000000, -0.0000000000000000000 ) ) ;
#10 = AXIS2_PLACEMENT_3D ( 'NONE', #32, #147, #115 ) ;
#11 = FACE_BOUND ( 'NONE', #52, .T. ) ;
#12 = UNCERTAINTY_MEASURE_WITH_UNIT (LENGTH_MEASURE( 1.000000000000000100E-005 ), #156, 'distance_accuracy_value', 'NONE');
#13 = CARTESIAN_POINT ( 'NONE',  ( -3.825000000000000200, 0.0000000000000000000, 2.000000000000000000 ) ) ;
#14 = CARTESIAN_POINT ( 'NONE',  ( 0.0000000000000000000, 0.0000000000000000000, 2.000000000000000000 ) ) ;
#15 = EDGE_CURVE ( 'NONE', #38, #127, #102, .T. ) ;
#16 = DIRECTION ( 'NONE',  ( 1.000000000000000000, 0.0000000000000000000, 0.0000000000000000000 ) ) ;
#17 = DIRECTION ( 'NONE',  ( 0.0000000000000000000, 0.0000000000000000000, 1.000000000000000000 ) ) ;
#18 = DIRECTION ( 'NONE',  ( 1.000000000000000000, 0.0000000000000000000, 0.0000000000000000000 ) ) ;
#19 = EDGE_CURVE ( 'NONE', #162, #49, #149, .T. ) ;
#20 = DIRECTION ( 'NONE',  ( 0.0000000000000000000, 0.0000000000000000000, 1.000000000000000000 ) ) ;
#21 = ORIENTED_EDGE ( 'NONE', *, *, #67, .T. ) ;
#22 = CARTESIAN_POINT ( 'NONE',  ( 0.0000000000000000000, 0.0000000000000000000, 2.000000000000000000 ) ) ;
#23 = ADVANCED_FACE ( 'NONE', ( #190, #11 ), #87, .F. ) ;
#24 = PRODUCT_DEFINITION_SHAPE ( 'NONE', 'NONE',  #161 ) ;
#25 = CARTESIAN_POINT ( 'NONE',  ( 0.5000000000000000000, 6.123233995736766000E-017, 2.000000000000000000 ) ) ;
#26 = ORIENTED_EDGE ( 'NONE', *, *, #172, .T. ) ;
#27 = DIRECTION ( 'NONE',  ( 0.0000000000000000000, 0.0000000000000000000, 1.000000000000000000 ) ) ;
#28 = AXIS2_PLACEMENT_3D ( 'NONE', #22, #169, #9 ) ;
#29 = EDGE_CURVE ( 'NONE', #155, #204, #120, .T. ) ;
#30 = VERTEX_POINT ( 'NONE', #69 ) ;
#31 = AXIS2_PLACEMENT_3D ( 'NONE', #3, #17, #138 ) ;
#32 = CARTESIAN_POINT ( 'NONE',  ( 0.0000000000000000000, 0.0000000000000000000, 0.0000000000000000000 ) ) ;
#33 = CYLINDRICAL_SURFACE ( 'NONE', #65, 0.5000000000000000000 ) ;
#34 = STYLED_ITEM ( 'NONE', ( #60 ), #137 ) ;
#35 = CARTESIAN_POINT ( 'NONE',  ( 0.0000000000000000000, 0.0000000000000000000, 0.0000000000000000000 ) ) ;
#36 = VECTOR ( 'NONE', #93, 1000.000000000000000 ) ;
#37 = CARTESIAN_POINT ( 'NONE',  ( 0.0000000000000000000, 0.0000000000000000000, 2.000000000000000000 ) ) ;
#38 = VERTEX_POINT ( 'NONE', #181 ) ;
#39 = SURFACE_SIDE_STYLE ('',( #83 ) ) ;
#40 = DIRECTION ( 'NONE',  ( -0.0000000000000000000, -0.0000000000000000000, -1.000000000000000000 ) ) ;
#41 = LINE ( 'NONE', #25, #61 ) ;
#42 = SURFACE_SIDE_STYLE ('',( #170 ) ) ;
#43 =( NAMED_UNIT ( * ) SI_UNIT ( $, .STERADIAN. ) SOLID_ANGLE_UNIT ( ) );
#44 = CIRCLE ( 'NONE', #125, 3.825000000000000200 ) ;
#45 = AXIS2_PLACEMENT_3D ( 'NONE', #50, #89, #199 ) ;
#46 =( NAMED_UNIT ( * ) PLANE_ANGLE_UNIT ( ) SI_UNIT ( $, .RADIAN. ) );
#47 = UNCERTAINTY_MEASURE_WITH_UNIT (LENGTH_MEASURE( 1.000000000000000100E-005 ), #193, 'distance_accuracy_value', 'NONE');
#48 = VECTOR ( 'NONE', #116, 1000.000000000000000 ) ;
#49 = VERTEX_POINT ( 'NONE', #1 ) ;
#50 = CARTESIAN_POINT ( 'NONE',  ( 0.0000000000000000000, 0.0000000000000000000, 0.0000000000000000000 ) ) ;
#51 = EDGE_CURVE ( 'NONE', #127, #38, #126, .T. ) ;
#52 = EDGE_LOOP ( 'NONE', ( #179, #99 ) ) ;
#53 = FILL_AREA_STYLE ('',( #206 ) ) ;
#54 = AXIS2_PLACEMENT_3D ( 'NONE', #140, #40, #108 ) ;
#55 = DIRECTION ( 'NONE',  ( -1.000000000000000000, 0.0000000000000000000, 0.0000000000000000000 ) ) ;
#56 = DIRECTION ( 'NONE',  ( -0.0000000000000000000, -0.0000000000000000000, -1.000000000000000000 ) ) ;
#57 = APPLICATION_PROTOCOL_DEFINITION ( 'draft international standard', 'automotive_design', 1998, #128 ) ;
#58 = PRESENTATION_LAYER_ASSIGNMENT (  '', '', ( #34 ) ) ;
#59 = FILL_AREA_STYLE ('',( #70 ) ) ;
#60 = PRESENTATION_STYLE_ASSIGNMENT (( #131 ) ) ;
#61 = VECTOR ( 'NONE', #205, 1000.000000000000000 ) ;
#62 = EDGE_LOOP ( 'NONE', ( #150, #133 ) ) ;
#63 = AXIS2_PLACEMENT_3D ( 'NONE', #8, #168, #71 ) ;
#64 = ORIENTED_EDGE ( 'NONE', *, *, #67, .F. ) ;
#65 = AXIS2_PLACEMENT_3D ( 'NONE', #122, #56, #91 ) ;
#66 = DIRECTION ( 'NONE',  ( 1.000000000000000000, 0.0000000000000000000, 0.0000000000000000000 ) ) ;
#67 = EDGE_CURVE ( 'NONE', #194, #204, #90, .T. ) ;
#68 = ADVANCED_FACE ( 'NONE', ( #158 ), #4, .T. ) ;
#69 = CARTESIAN_POINT ( 'NONE',  ( 3.825000000000000200, 4.684274006738626100E-016, 2.000000000000000000 ) ) ;
#70 = FILL_AREA_STYLE_COLOUR ( '', #182 ) ;
#71 = DIRECTION ( 'NONE',  ( 1.000000000000000000, 0.0000000000000000000, 0.0000000000000000000 ) ) ;
#72 = DIRECTION ( 'NONE',  ( 1.000000000000000000, 0.0000000000000000000, 0.0000000000000000000 ) ) ;
#73 = CARTESIAN_POINT ( 'NONE',  ( 0.0000000000000000000, 0.0000000000000000000, 2.000000000000000000 ) ) ;
#74 = FACE_OUTER_BOUND ( 'NONE', #192, .T. ) ;
#75 = ORIENTED_EDGE ( 'NONE', *, *, #142, .F. ) ;
#76 = EDGE_CURVE ( 'NONE', #38, #49, #41, .T. ) ;
#77 = EDGE_CURVE ( 'NONE', #194, #30, #180, .T. ) ;
#78 = DIRECTION ( 'NONE',  ( 1.000000000000000000, 0.0000000000000000000, 0.0000000000000000000 ) ) ;
#79 =( GEOMETRIC_REPRESENTATION_CONTEXT ( 3 ) GLOBAL_UNCERTAINTY_ASSIGNED_CONTEXT ( ( #47 ) ) GLOBAL_UNIT_ASSIGNED_CONTEXT ( ( #193, #46, #143 ) ) REPRESENTATION_CONTEXT ( 'NONE', 'WORKASPACE' ) );
#80 = FACE_OUTER_BOUND ( 'NONE', #165, .T. ) ;
#81 = ORIENTED_EDGE ( 'NONE', *, *, #29, .F. ) ;
#82 = MECHANICAL_DESIGN_GEOMETRIC_PRESENTATION_REPRESENTATION (  '', ( #34 ), #100 ) ;
#83 = SURFACE_STYLE_FILL_AREA ( #53 ) ;
#84 = ORIENTED_EDGE ( 'NONE', *, *, #202, .F. ) ;
#85 = SHAPE_DEFINITION_REPRESENTATION ( #24, #137 ) ;
#86 = FACE_BOUND ( 'NONE', #62, .T. ) ;
#87 = PLANE ( 'NONE',  #10 ) ;
#88 =( GEOMETRIC_REPRESENTATION_CONTEXT ( 3 ) GLOBAL_UNCERTAINTY_ASSIGNED_CONTEXT ( ( #12 ) ) GLOBAL_UNIT_ASSIGNED_CONTEXT ( ( #156, #123, #152 ) ) REPRESENTATION_CONTEXT ( 'NONE', 'WORKASPACE' ) );
#89 = DIRECTION ( 'NONE',  ( 0.0000000000000000000, 0.0000000000000000000, 1.000000000000000000 ) ) ;
#90 = LINE ( 'NONE', #13, #48 ) ;
#91 = DIRECTION ( 'NONE',  ( -1.000000000000000000, 0.0000000000000000000, 0.0000000000000000000 ) ) ;
#92 = DIRECTION ( 'NONE',  ( 1.000000000000000000, 0.0000000000000000000, 0.0000000000000000000 ) ) ;
#93 = DIRECTION ( 'NONE',  ( -0.0000000000000000000, -0.0000000000000000000, -1.000000000000000000 ) ) ;
#94 = VECTOR ( 'NONE', #208, 1000.000000000000000 ) ;
#95 = EDGE_CURVE ( 'NONE', #204, #155, #44, .T. ) ;
#96 = CARTESIAN_POINT ( 'NONE',  ( -0.5000000000000000000, 0.0000000000000000000, 2.000000000000000000 ) ) ;
#97 = SURFACE_STYLE_USAGE ( .BOTH. , #39 ) ;
#98 = ADVANCED_FACE ( 'NONE', ( #74 ), #130, .F. ) ;
#99 = ORIENTED_EDGE ( 'NONE', *, *, #104, .T. ) ;
#100 =( GEOMETRIC_REPRESENTATION_CONTEXT ( 3 ) GLOBAL_UNCERTAINTY_ASSIGNED_CONTEXT ( ( #187 ) ) GLOBAL_UNIT_ASSIGNED_CONTEXT ( ( #189, #177, #43 ) ) REPRESENTATION_CONTEXT ( 'NONE', 'WORKASPACE' ) );
#101 = ORIENTED_EDGE ( 'NONE', *, *, #15, .T. ) ;
#102 = CIRCLE ( 'NONE', #196, 0.5000000000000000000 ) ;
#103 = ORIENTED_EDGE ( 'NONE', *, *, #95, .T. ) ;
#104 = EDGE_CURVE ( 'NONE', #49, #162, #174, .T. ) ;
#105 = CARTESIAN_POINT ( 'NONE',  ( 0.0000000000000000000, 0.0000000000000000000, 2.000000000000000000 ) ) ;
#106 = CLOSED_SHELL ( 'NONE', ( #98, #68, #153, #23, #173, #160 ) ) ;
#107 = CARTESIAN_POINT ( 'NONE',  ( 0.0000000000000000000, 0.0000000000000000000, 0.0000000000000000000 ) ) ;
#108 = DIRECTION ( 'NONE',  ( -1.000000000000000000, 0.0000000000000000000, 0.0000000000000000000 ) ) ;
#109 = DIRECTION ( 'NONE',  ( -0.0000000000000000000, -0.0000000000000000000, -1.000000000000000000 ) ) ;
#110 = ORIENTED_EDGE ( 'NONE', *, *, #142, .T. ) ;
#111 = PRODUCT_CONTEXT ( 'NONE', #128, 'mechanical' ) ;
#112 = APPLICATION_PROTOCOL_DEFINITION ( 'draft international standard', 'automotive_design', 1998, #176 ) ;
#113 = LINE ( 'NONE', #188, #94 ) ;
#114 = ORIENTED_EDGE ( 'NONE', *, *, #51, .T. ) ;
#115 = DIRECTION ( 'NONE',  ( 1.000000000000000000, 0.0000000000000000000, -0.0000000000000000000 ) ) ;
#116 = DIRECTION ( 'NONE',  ( -0.0000000000000000000, -0.0000000000000000000, -1.000000000000000000 ) ) ;
#117 = ORIENTED_EDGE ( 'NONE', *, *, #172, .F. ) ;
#118 = CARTESIAN_POINT ( 'NONE',  ( 0.0000000000000000000, 0.0000000000000000000, 0.0000000000000000000 ) ) ;
#119 = PRODUCT_DEFINITION_FORMATION_WITH_SPECIFIED_SOURCE ( 'ANY', '', #136, .NOT_KNOWN. ) ;
#120 = CIRCLE ( 'NONE', #45, 3.825000000000000200 ) ;
#121 = ORIENTED_EDGE ( 'NONE', *, *, #76, .F. ) ;
#122 = CARTESIAN_POINT ( 'NONE',  ( 0.0000000000000000000, 0.0000000000000000000, 2.000000000000000000 ) ) ;
#123 =( NAMED_UNIT ( * ) PLANE_ANGLE_UNIT ( ) SI_UNIT ( $, .RADIAN. ) );
#124 = CARTESIAN_POINT ( 'NONE',  ( -3.825000000000000200, 0.0000000000000000000, 0.0000000000000000000 ) ) ;
#125 = AXIS2_PLACEMENT_3D ( 'NONE', #107, #141, #92 ) ;
#126 = CIRCLE ( 'NONE', #31, 0.5000000000000000000 ) ;
#127 = VERTEX_POINT ( 'NONE', #96 ) ;
#128 = APPLICATION_CONTEXT ( 'automotive_design' ) ;
#129 = PRODUCT_RELATED_PRODUCT_CATEGORY ( 'part', '', ( #136 ) ) ;
#130 = CYLINDRICAL_SURFACE ( 'NONE', #54, 0.5000000000000000000 ) ;
#131 = SURFACE_STYLE_USAGE ( .BOTH. , #42 ) ;
#132 = ORIENTED_EDGE ( 'NONE', *, *, #77, .F. ) ;
#133 = ORIENTED_EDGE ( 'NONE', *, *, #15, .F. ) ;
#134 = DIRECTION ( 'NONE',  ( -0.0000000000000000000, -0.0000000000000000000, -1.000000000000000000 ) ) ;
#135 = AXIS2_PLACEMENT_3D ( 'NONE', #73, #109, #171 ) ;
#136 = PRODUCT ( 'magnetic-encoder-disc-for-micro-metal-gearmotors-w1r02a', 'magnetic-encoder-disc-for-micro-metal-gearmotors-w1r02a', '', ( #111 ) ) ;
#137 = ADVANCED_BREP_SHAPE_REPRESENTATION ( 'magnetic-encoder-disc-for-micro-metal-gearmotors-w1r02a', ( #148, #139 ), #79 ) ;
#138 = DIRECTION ( 'NONE',  ( 1.000000000000000000, 0.0000000000000000000, 0.0000000000000000000 ) ) ;
#139 = AXIS2_PLACEMENT_3D ( 'NONE', #118, #27, #78 ) ;
#140 = CARTESIAN_POINT ( 'NONE',  ( 0.0000000000000000000, 0.0000000000000000000, 2.000000000000000000 ) ) ;
#141 = DIRECTION ( 'NONE',  ( 0.0000000000000000000, 0.0000000000000000000, 1.000000000000000000 ) ) ;
#142 = EDGE_CURVE ( 'NONE', #30, #194, #212, .T. ) ;
#143 =( NAMED_UNIT ( * ) SI_UNIT ( $, .STERADIAN. ) SOLID_ANGLE_UNIT ( ) );
#144 = LINE ( 'NONE', #154, #36 ) ;
#145 = EDGE_LOOP ( 'NONE', ( #191, #81 ) ) ;
#146 = EDGE_LOOP ( 'NONE', ( #75, #200, #195, #64 ) ) ;
#147 = DIRECTION ( 'NONE',  ( 0.0000000000000000000, 0.0000000000000000000, 1.000000000000000000 ) ) ;
#148 = MANIFOLD_SOLID_BREP ( 'Boss-Extrude1', #106 ) ;
#149 = CIRCLE ( 'NONE', #183, 0.5000000000000000000 ) ;
#150 = ORIENTED_EDGE ( 'NONE', *, *, #51, .F. ) ;
#151 = DIRECTION ( 'NONE',  ( 0.0000000000000000000, 0.0000000000000000000, 1.000000000000000000 ) ) ;
#152 =( NAMED_UNIT ( * ) SI_UNIT ( $, .STERADIAN. ) SOLID_ANGLE_UNIT ( ) );
#153 = ADVANCED_FACE ( 'NONE', ( #80, #86 ), #185, .T. ) ;
#154 = CARTESIAN_POINT ( 'NONE',  ( -0.5000000000000000000, 0.0000000000000000000, 2.000000000000000000 ) ) ;
#155 = VERTEX_POINT ( 'NONE', #157 ) ;
#156 =( LENGTH_UNIT ( ) NAMED_UNIT ( * ) SI_UNIT ( .MILLI., .METRE. ) );
#157 = CARTESIAN_POINT ( 'NONE',  ( 3.825000000000000200, 4.684274006738626100E-016, 0.0000000000000000000 ) ) ;
#158 = FACE_OUTER_BOUND ( 'NONE', #146, .T. ) ;
#159 = ORIENTED_EDGE ( 'NONE', *, *, #104, .F. ) ;
#160 = ADVANCED_FACE ( 'NONE', ( #163 ), #33, .F. ) ;
#161 = PRODUCT_DEFINITION ( 'UNKNOWN', '', #119, #211 ) ;
#162 = VERTEX_POINT ( 'NONE', #184 ) ;
#163 = FACE_OUTER_BOUND ( 'NONE', #5, .T. ) ;
#164 = ORIENTED_EDGE ( 'NONE', *, *, #77, .T. ) ;
#165 = EDGE_LOOP ( 'NONE', ( #164, #110 ) ) ;
#166 = ORIENTED_EDGE ( 'NONE', *, *, #76, .T. ) ;
#167 = PRESENTATION_LAYER_ASSIGNMENT (  '', '', ( #198 ) ) ;
#168 = DIRECTION ( 'NONE',  ( 0.0000000000000000000, 0.0000000000000000000, 1.000000000000000000 ) ) ;
#169 = DIRECTION ( 'NONE',  ( 0.0000000000000000000, 0.0000000000000000000, 1.000000000000000000 ) ) ;
#170 = SURFACE_STYLE_FILL_AREA ( #59 ) ;
#171 = DIRECTION ( 'NONE',  ( -1.000000000000000000, 0.0000000000000000000, 0.0000000000000000000 ) ) ;
#172 = EDGE_CURVE ( 'NONE', #127, #162, #144, .T. ) ;
#173 = ADVANCED_FACE ( 'NONE', ( #210 ), #207, .T. ) ;
#174 = CIRCLE ( 'NONE', #63, 0.5000000000000000000 ) ;
#175 = EDGE_LOOP ( 'NONE', ( #84, #132, #21, #103 ) ) ;
#176 = APPLICATION_CONTEXT ( 'automotive_design' ) ;
#177 =( NAMED_UNIT ( * ) PLANE_ANGLE_UNIT ( ) SI_UNIT ( $, .RADIAN. ) );
#178 = PRESENTATION_STYLE_ASSIGNMENT (( #97 ) ) ;
#179 = ORIENTED_EDGE ( 'NONE', *, *, #19, .T. ) ;
#180 = CIRCLE ( 'NONE', #2, 3.825000000000000200 ) ;
#181 = CARTESIAN_POINT ( 'NONE',  ( 0.5000000000000000000, 6.123233995736766000E-017, 2.000000000000000000 ) ) ;
#182 = COLOUR_RGB ( '',0.2509803921568627400, 0.2509803921568627400, 0.2509803921568627400 ) ;
#183 = AXIS2_PLACEMENT_3D ( 'NONE', #35, #201, #66 ) ;
#184 = CARTESIAN_POINT ( 'NONE',  ( -0.5000000000000000000, 0.0000000000000000000, 0.0000000000000000000 ) ) ;
#185 = PLANE ( 'NONE',  #28 ) ;
#186 = AXIS2_PLACEMENT_3D ( 'NONE', #7, #20, #72 ) ;
#187 = UNCERTAINTY_MEASURE_WITH_UNIT (LENGTH_MEASURE( 1.000000000000000100E-005 ), #189, 'distance_accuracy_value', 'NONE');
#188 = CARTESIAN_POINT ( 'NONE',  ( 3.825000000000000200, 4.684274006738626100E-016, 2.000000000000000000 ) ) ;
#189 =( LENGTH_UNIT ( ) NAMED_UNIT ( * ) SI_UNIT ( .MILLI., .METRE. ) );
#190 = FACE_OUTER_BOUND ( 'NONE', #145, .T. ) ;
#191 = ORIENTED_EDGE ( 'NONE', *, *, #95, .F. ) ;
#192 = EDGE_LOOP ( 'NONE', ( #114, #166, #197, #117 ) ) ;
#193 =( LENGTH_UNIT ( ) NAMED_UNIT ( * ) SI_UNIT ( .MILLI., .METRE. ) );
#194 = VERTEX_POINT ( 'NONE', #203 ) ;
#195 = ORIENTED_EDGE ( 'NONE', *, *, #29, .T. ) ;
#196 = AXIS2_PLACEMENT_3D ( 'NONE', #14, #151, #16 ) ;
#197 = ORIENTED_EDGE ( 'NONE', *, *, #19, .F. ) ;
#198 = STYLED_ITEM ( 'NONE', ( #178 ), #148 ) ;
#199 = DIRECTION ( 'NONE',  ( 1.000000000000000000, 0.0000000000000000000, 0.0000000000000000000 ) ) ;
#200 = ORIENTED_EDGE ( 'NONE', *, *, #202, .T. ) ;
#201 = DIRECTION ( 'NONE',  ( 0.0000000000000000000, 0.0000000000000000000, 1.000000000000000000 ) ) ;
#202 = EDGE_CURVE ( 'NONE', #30, #155, #113, .T. ) ;
#203 = CARTESIAN_POINT ( 'NONE',  ( -3.825000000000000200, 0.0000000000000000000, 2.000000000000000000 ) ) ;
#204 = VERTEX_POINT ( 'NONE', #124 ) ;
#205 = DIRECTION ( 'NONE',  ( -0.0000000000000000000, -0.0000000000000000000, -1.000000000000000000 ) ) ;
#206 = FILL_AREA_STYLE_COLOUR ( '', #214 ) ;
#207 = CYLINDRICAL_SURFACE ( 'NONE', #135, 3.825000000000000200 ) ;
#208 = DIRECTION ( 'NONE',  ( -0.0000000000000000000, -0.0000000000000000000, -1.000000000000000000 ) ) ;
#209 = AXIS2_PLACEMENT_3D ( 'NONE', #105, #134, #55 ) ;
#210 = FACE_OUTER_BOUND ( 'NONE', #175, .T. ) ;
#211 = PRODUCT_DEFINITION_CONTEXT ( 'detailed design', #176, 'design' ) ;
#212 = CIRCLE ( 'NONE', #186, 3.825000000000000200 ) ;
#213 = MECHANICAL_DESIGN_GEOMETRIC_PRESENTATION_REPRESENTATION (  '', ( #198 ), #88 ) ;
#214 = COLOUR_RGB ( '',0.2509803921568627400, 0.2509803921568627400, 0.2509803921568627400 ) ;
ENDSEC;
END-ISO-10303-21;
