  0
SECTION
  2
HEADER
  9
$EXTMIN
 10
-0.197000
 20
-0.463000
  9
$EXTMAX
 10
0.405000
 20
0.505000
  9
$LIMMIN
 10
-0.197000
 20
-0.463000
  9
$LIMMAX
 10
0.405000
 20
0.505000
  9
$FILLMODE
 70
  1
  0
ENDSEC
  0
SECTION
  2
TABLES
  0
TABLE
  2
LTYPE
 70
  1
  0
LTYPE
  2
CONTINUOUS
 70
 64
  3
Solid line
 72
 65
 73
  0
 40
0.0
  0
ENDTAB
  0
TABLE
  2
LAYER
 70
 1
  0
LAYER
  2
0
 70
  0
 62
7
  6
CONTINUOUS
  0
LAYER
  2
gg1
 70
  0
 62
1
  6
CONTINUOUS
  0
ENDTAB
  0
TABLE
  2
STYLE
 70
  1
  0
STYLE
  2
STANDARD
 70
  0
 40
0.0
 41
1.0
 50
0.0
 71
  0
 42
0.2
  3
txt
  4

  0
ENDTAB
  0
ENDSEC
  0
SECTION
  2
BLOCKS
  0
BLOCK
  8
0
  2
D10
 70
64
 10
0.0
 20
0.0
  3
D10
  0
CIRCLE
  8
0
 10
0.000000
 20
0.000000
 40
0.005000
 0
ENDBLK
  8
0
  0
BLOCK
  8
0
  2
D11
 70
64
 10
0.0
 20
0.0
  3
D11
  0
CIRCLE
  8
0
 10
0.000000
 20
0.000000
 40
0.002500
 0
ENDBLK
  8
0
  0
BLOCK
  8
0
  2
D12
 70
64
 10
0.0
 20
0.0
  3
D12
  0
CIRCLE
  8
0
 10
0.000000
 20
0.000000
 40
0.003000
 0
ENDBLK
  8
0
  0
ENDSEC
  0
SECTION
  2
ENTITIES
  0
POLYLINE
  8
gg1
 62
1
 40
0.000000
 41
0.000000
 66
  1
  0
VERTEX
  8
gg1
 10
0.000000
 20
-0.350000
  0
VERTEX
  8
gg1
 10
0.000000
 20
-0.012500
  0
SEQEND
  8
gg1
  0
POLYLINE
  8
gg1
 62
1
 40
0.000000
 41
0.000000
 66
  1
  0
VERTEX
  8
gg1
 10
0.400000
 20
-0.350000
  0
VERTEX
  8
gg1
 10
0.400000
 20
-0.012500
  0
SEQEND
  8
gg1
  0
POLYLINE
  8
gg1
 62
1
 40
0.000000
 41
0.000000
 66
  1
  0
VERTEX
  8
gg1
 10
0.000000
 20
-0.340000
  0
VERTEX
  8
gg1
 10
0.200000
 20
-0.340000
  0
VERTEX
  8
gg1
 10
0.400000
 20
-0.340000
  0
SEQEND
  8
gg1
  0
POLYLINE
  8
gg1
 62
1
 40
0.000000
 41
0.000000
 66
  1
  0
VERTEX
  8
gg1
 10
0.000000
 20
-0.340000
  0
VERTEX
  8
gg1
 10
0.060000
 20
-0.360000
  0
SEQEND
  8
gg1
  0
POLYLINE
  8
gg1
 62
1
 40
0.000000
 41
0.000000
 66
  1
  0
VERTEX
  8
gg1
 10
0.000000
 20
-0.340000
  0
VERTEX
  8
gg1
 10
0.060000
 20
-0.320000
  0
SEQEND
  8
gg1
  0
POLYLINE
  8
gg1
 62
1
 40
0.000000
 41
0.000000
 66
  1
  0
VERTEX
  8
gg1
 10
0.340000
 20
-0.320000
  0
VERTEX
  8
gg1
 10
0.400000
 20
-0.340000
  0
SEQEND
  8
gg1
  0
POLYLINE
  8
gg1
 62
1
 40
0.000000
 41
0.000000
 66
  1
  0
VERTEX
  8
gg1
 10
0.340000
 20
-0.360000
  0
VERTEX
  8
gg1
 10
0.400000
 20
-0.340000
  0
SEQEND
  8
gg1
  0
POLYLINE
  8
gg1
 62
1
 40
0.000000
 41
0.000000
 66
  1
  0
VERTEX
  8
gg1
 10
-0.180000
 20
0.000000
  0
VERTEX
  8
gg1
 10
-0.012500
 20
0.000000
  0
SEQEND
  8
gg1
  0
POLYLINE
  8
gg1
 62
1
 40
0.000000
 41
0.000000
 66
  1
  0
VERTEX
  8
gg1
 10
-0.180000
 20
0.500000
  0
VERTEX
  8
gg1
 10
-0.010000
 20
0.500000
  0
SEQEND
  8
gg1
  0
POLYLINE
  8
gg1
 62
1
 40
0.000000
 41
0.000000
 66
  1
  0
VERTEX
  8
gg1
 10
-0.170000
 20
0.000000
  0
VERTEX
  8
gg1
 10
-0.170000
 20
0.063100
  0
SEQEND
  8
gg1
  0
POLYLINE
  8
gg1
 62
1
 40
0.000000
 41
0.000000
 66
  1
  0
VERTEX
  8
gg1
 10
-0.170000
 20
0.404900
  0
VERTEX
  8
gg1
 10
-0.170000
 20
0.500000
  0
SEQEND
  8
gg1
  0
POLYLINE
  8
gg1
 62
1
 40
0.000000
 41
0.000000
 66
  1
  0
VERTEX
  8
gg1
 10
-0.170000
 20
0.000000
  0
VERTEX
  8
gg1
 10
-0.150000
 20
0.060000
  0
SEQEND
  8
gg1
  0
POLYLINE
  8
gg1
 62
1
 40
0.000000
 41
0.000000
 66
  1
  0
VERTEX
  8
gg1
 10
-0.190000
 20
0.060000
  0
VERTEX
  8
gg1
 10
-0.170000
 20
0.000000
  0
SEQEND
  8
gg1
  0
POLYLINE
  8
gg1
 62
1
 40
0.000000
 41
0.000000
 66
  1
  0
VERTEX
  8
gg1
 10
-0.190000
 20
0.440000
  0
VERTEX
  8
gg1
 10
-0.170000
 20
0.500000
  0
VERTEX
  8
gg1
 10
-0.150000
 20
0.440000
  0
SEQEND
  8
gg1
  0
POLYLINE
  8
gg1
 62
1
 40
0.000000
 41
0.000000
 66
  1
  0
VERTEX
  8
gg1
 10
0.000000
 20
0.500000
  0
VERTEX
  8
gg1
 10
0.400000
 20
0.500000
  0
SEQEND
  8
gg1
  0
POLYLINE
  8
gg1
 62
1
 40
0.000000
 41
0.000000
 66
  1
  0
VERTEX
  8
gg1
 10
0.400000
 20
0.000000
  0
VERTEX
  8
gg1
 10
0.400000
 20
0.500000
  0
SEQEND
  8
gg1
  0
POLYLINE
  8
gg1
 62
1
 40
0.000000
 41
0.000000
 66
  1
  0
VERTEX
  8
gg1
 10
0.000000
 20
0.000000
  0
VERTEX
  8
gg1
 10
0.400000
 20
0.000000
  0
SEQEND
  8
gg1
  0
POLYLINE
  8
gg1
 62
1
 40
0.000000
 41
0.000000
 66
  1
  0
VERTEX
  8
gg1
 10
0.000000
 20
0.000000
  0
VERTEX
  8
gg1
 10
0.000000
 20
0.500000
  0
SEQEND
  8
gg1
  0
POLYLINE
  8
gg1
 62
1
 40
0.000000
 41
0.000000
 66
  1
  0
VERTEX
  8
gg1
 10
0.330000
 20
0.050000
  0
VERTEX
  8
gg1
 10
0.370000
 20
0.050000
  0
SEQEND
  8
gg1
  0
POLYLINE
  8
gg1
 62
1
 40
0.000000
 41
0.000000
 66
  1
  0
VERTEX
  8
gg1
 10
0.350000
 20
0.030000
  0
VERTEX
  8
gg1
 10
0.350000
 20
0.070000
  0
SEQEND
  8
gg1
  0
POLYLINE
  8
gg1
 62
1
 40
0.000000
 41
0.000000
 66
  1
  0
VERTEX
  8
gg1
 10
0.230000
 20
0.050000
  0
VERTEX
  8
gg1
 10
0.270000
 20
0.050000
  0
SEQEND
  8
gg1
  0
POLYLINE
  8
gg1
 62
1
 40
0.000000
 41
0.000000
 66
  1
  0
VERTEX
  8
gg1
 10
0.250000
 20
0.030000
  0
VERTEX
  8
gg1
 10
0.250000
 20
0.070000
  0
SEQEND
  8
gg1
  0
POLYLINE
  8
gg1
 62
1
 40
0.000000
 41
0.000000
 66
  1
  0
VERTEX
  8
gg1
 10
0.130000
 20
0.050000
  0
VERTEX
  8
gg1
 10
0.170000
 20
0.050000
  0
SEQEND
  8
gg1
  0
POLYLINE
  8
gg1
 62
1
 40
0.000000
 41
0.000000
 66
  1
  0
VERTEX
  8
gg1
 10
0.150000
 20
0.030000
  0
VERTEX
  8
gg1
 10
0.150000
 20
0.070000
  0
SEQEND
  8
gg1
  0
POLYLINE
  8
gg1
 62
1
 40
0.000000
 41
0.000000
 66
  1
  0
VERTEX
  8
gg1
 10
0.030000
 20
0.050000
  0
VERTEX
  8
gg1
 10
0.070000
 20
0.050000
  0
SEQEND
  8
gg1
  0
POLYLINE
  8
gg1
 62
1
 40
0.000000
 41
0.000000
 66
  1
  0
VERTEX
  8
gg1
 10
0.050000
 20
0.030000
  0
VERTEX
  8
gg1
 10
0.050000
 20
0.070000
  0
SEQEND
  8
gg1
  0
POLYLINE
  8
gg1
 62
1
 40
0.000000
 41
0.000000
 66
  1
  0
VERTEX
  8
gg1
 10
0.200500
 20
0.441000
  0
VERTEX
  8
gg1
 10
0.215500
 20
0.441000
  0
SEQEND
  8
gg1
  0
POLYLINE
  8
gg1
 62
1
 40
0.000000
 41
0.000000
 66
  1
  0
VERTEX
  8
gg1
 10
0.208000
 20
0.433500
  0
VERTEX
  8
gg1
 10
0.208000
 20
0.448500
  0
SEQEND
  8
gg1
  0
POLYLINE
  8
gg1
 62
1
 40
0.000000
 41
0.000000
 66
  1
  0
VERTEX
  8
gg1
 10
0.222700
 20
0.329300
  0
VERTEX
  8
gg1
 10
0.237700
 20
0.329300
  0
SEQEND
  8
gg1
  0
POLYLINE
  8
gg1
 62
1
 40
0.000000
 41
0.000000
 66
  1
  0
VERTEX
  8
gg1
 10
0.230200
 20
0.321800
  0
VERTEX
  8
gg1
 10
0.230200
 20
0.336800
  0
SEQEND
  8
gg1
  0
POLYLINE
  8
gg1
 62
1
 40
0.000000
 41
0.000000
 66
  1
  0
VERTEX
  8
gg1
 10
0.172500
 20
0.329300
  0
VERTEX
  8
gg1
 10
0.187500
 20
0.329300
  0
SEQEND
  8
gg1
  0
POLYLINE
  8
gg1
 62
1
 40
0.000000
 41
0.000000
 66
  1
  0
VERTEX
  8
gg1
 10
0.180000
 20
0.321800
  0
VERTEX
  8
gg1
 10
0.180000
 20
0.336800
  0
SEQEND
  8
gg1
  0
POLYLINE
  8
gg1
 62
1
 40
0.000000
 41
0.000000
 66
  1
  0
VERTEX
  8
gg1
 10
0.122300
 20
0.329300
  0
VERTEX
  8
gg1
 10
0.137300
 20
0.329300
  0
SEQEND
  8
gg1
  0
POLYLINE
  8
gg1
 62
1
 40
0.000000
 41
0.000000
 66
  1
  0
VERTEX
  8
gg1
 10
0.129800
 20
0.321800
  0
VERTEX
  8
gg1
 10
0.129800
 20
0.336800
  0
SEQEND
  8
gg1
  0
POLYLINE
  8
gg1
 62
1
 40
0.000000
 41
0.000000
 66
  1
  0
VERTEX
  8
gg1
 10
0.122300
 20
0.366700
  0
VERTEX
  8
gg1
 10
0.137300
 20
0.366700
  0
SEQEND
  8
gg1
  0
POLYLINE
  8
gg1
 62
1
 40
0.000000
 41
0.000000
 66
  1
  0
VERTEX
  8
gg1
 10
0.129800
 20
0.359200
  0
VERTEX
  8
gg1
 10
0.129800
 20
0.374200
  0
SEQEND
  8
gg1
  0
POLYLINE
  8
gg1
 62
1
 40
0.000000
 41
0.000000
 66
  1
  0
VERTEX
  8
gg1
 10
0.172500
 20
0.366700
  0
VERTEX
  8
gg1
 10
0.187500
 20
0.366700
  0
SEQEND
  8
gg1
  0
POLYLINE
  8
gg1
 62
1
 40
0.000000
 41
0.000000
 66
  1
  0
VERTEX
  8
gg1
 10
0.180000
 20
0.359200
  0
VERTEX
  8
gg1
 10
0.180000
 20
0.374200
  0
SEQEND
  8
gg1
  0
POLYLINE
  8
gg1
 62
1
 40
0.000000
 41
0.000000
 66
  1
  0
VERTEX
  8
gg1
 10
0.222700
 20
0.366700
  0
VERTEX
  8
gg1
 10
0.237700
 20
0.366700
  0
SEQEND
  8
gg1
  0
POLYLINE
  8
gg1
 62
1
 40
0.000000
 41
0.000000
 66
  1
  0
VERTEX
  8
gg1
 10
0.230200
 20
0.359200
  0
VERTEX
  8
gg1
 10
0.230200
 20
0.374200
  0
SEQEND
  8
gg1
  0
POLYLINE
  8
gg1
 62
1
 40
0.000000
 41
0.000000
 66
  1
  0
VERTEX
  8
gg1
 10
0.062500
 20
0.460000
  0
VERTEX
  8
gg1
 10
0.077500
 20
0.460000
  0
SEQEND
  8
gg1
  0
POLYLINE
  8
gg1
 62
1
 40
0.000000
 41
0.000000
 66
  1
  0
VERTEX
  8
gg1
 10
0.070000
 20
0.452500
  0
VERTEX
  8
gg1
 10
0.070000
 20
0.467500
  0
SEQEND
  8
gg1
  0
POLYLINE
  8
gg1
 62
1
 40
0.000000
 41
0.000000
 66
  1
  0
VERTEX
  8
gg1
 10
0.032500
 20
0.460000
  0
VERTEX
  8
gg1
 10
0.047500
 20
0.460000
  0
SEQEND
  8
gg1
  0
POLYLINE
  8
gg1
 62
1
 40
0.000000
 41
0.000000
 66
  1
  0
VERTEX
  8
gg1
 10
0.040000
 20
0.452500
  0
VERTEX
  8
gg1
 10
0.040000
 20
0.467500
  0
SEQEND
  8
gg1
  0
POLYLINE
  8
gg1
 62
1
 40
0.000000
 41
0.000000
 66
  1
  0
VERTEX
  8
gg1
 10
0.077500
 20
0.165000
  0
VERTEX
  8
gg1
 10
0.092500
 20
0.165000
  0
SEQEND
  8
gg1
  0
POLYLINE
  8
gg1
 62
1
 40
0.000000
 41
0.000000
 66
  1
  0
VERTEX
  8
gg1
 10
0.085000
 20
0.157500
  0
VERTEX
  8
gg1
 10
0.085000
 20
0.172500
  0
SEQEND
  8
gg1
  0
POLYLINE
  8
gg1
 62
1
 40
0.000000
 41
0.000000
 66
  1
  0
VERTEX
  8
gg1
 10
0.077500
 20
0.130000
  0
VERTEX
  8
gg1
 10
0.092500
 20
0.130000
  0
SEQEND
  8
gg1
  0
POLYLINE
  8
gg1
 62
1
 40
0.000000
 41
0.000000
 66
  1
  0
VERTEX
  8
gg1
 10
0.085000
 20
0.122500
  0
VERTEX
  8
gg1
 10
0.085000
 20
0.137500
  0
SEQEND
  8
gg1
  0
POLYLINE
  8
gg1
 62
1
 40
0.000000
 41
0.000000
 66
  1
  0
VERTEX
  8
gg1
 10
0.092500
 20
0.408000
  0
VERTEX
  8
gg1
 10
0.107500
 20
0.408000
  0
SEQEND
  8
gg1
  0
POLYLINE
  8
gg1
 62
1
 40
0.000000
 41
0.000000
 66
  1
  0
VERTEX
  8
gg1
 10
0.100000
 20
0.400500
  0
VERTEX
  8
gg1
 10
0.100000
 20
0.415500
  0
SEQEND
  8
gg1
  0
POLYLINE
  8
gg1
 62
1
 40
0.000000
 41
0.000000
 66
  1
  0
VERTEX
  8
gg1
 10
0.312500
 20
0.370000
  0
VERTEX
  8
gg1
 10
0.327500
 20
0.370000
  0
SEQEND
  8
gg1
  0
POLYLINE
  8
gg1
 62
1
 40
0.000000
 41
0.000000
 66
  1
  0
VERTEX
  8
gg1
 10
0.320000
 20
0.362500
  0
VERTEX
  8
gg1
 10
0.320000
 20
0.377500
  0
SEQEND
  8
gg1
  0
POLYLINE
  8
gg1
 62
1
 40
0.000000
 41
0.000000
 66
  1
  0
VERTEX
  8
gg1
 10
0.312500
 20
0.335000
  0
VERTEX
  8
gg1
 10
0.327500
 20
0.335000
  0
SEQEND
  8
gg1
  0
POLYLINE
  8
gg1
 62
1
 40
0.000000
 41
0.000000
 66
  1
  0
VERTEX
  8
gg1
 10
0.320000
 20
0.327500
  0
VERTEX
  8
gg1
 10
0.320000
 20
0.342500
  0
SEQEND
  8
gg1
  0
POLYLINE
  8
gg1
 62
1
 40
0.000000
 41
0.000000
 66
  1
  0
VERTEX
  8
gg1
 10
0.245500
 20
0.440000
  0
VERTEX
  8
gg1
 10
0.260500
 20
0.440000
  0
SEQEND
  8
gg1
  0
POLYLINE
  8
gg1
 62
1
 40
0.000000
 41
0.000000
 66
  1
  0
VERTEX
  8
gg1
 10
0.253000
 20
0.432500
  0
VERTEX
  8
gg1
 10
0.253000
 20
0.447500
  0
SEQEND
  8
gg1
  0
POLYLINE
  8
gg1
 62
1
 40
0.000000
 41
0.000000
 66
  1
  0
VERTEX
  8
gg1
 10
0.272500
 20
0.245000
  0
VERTEX
  8
gg1
 10
0.287500
 20
0.245000
  0
SEQEND
  8
gg1
  0
POLYLINE
  8
gg1
 62
1
 40
0.000000
 41
0.000000
 66
  1
  0
VERTEX
  8
gg1
 10
0.280000
 20
0.237500
  0
VERTEX
  8
gg1
 10
0.280000
 20
0.252500
  0
SEQEND
  8
gg1
  0
POLYLINE
  8
gg1
 62
1
 40
0.000000
 41
0.000000
 66
  1
  0
VERTEX
  8
gg1
 10
0.063500
 20
0.210000
  0
VERTEX
  8
gg1
 10
0.078500
 20
0.210000
  0
SEQEND
  8
gg1
  0
POLYLINE
  8
gg1
 62
1
 40
0.000000
 41
0.000000
 66
  1
  0
VERTEX
  8
gg1
 10
0.071000
 20
0.202500
  0
VERTEX
  8
gg1
 10
0.071000
 20
0.217500
  0
SEQEND
  8
gg1
  0
POLYLINE
  8
gg1
 62
1
 40
0.000000
 41
0.000000
 66
  1
  0
VERTEX
  8
gg1
 10
0.112500
 20
0.185000
  0
VERTEX
  8
gg1
 10
0.127500
 20
0.185000
  0
SEQEND
  8
gg1
  0
POLYLINE
  8
gg1
 62
1
 40
0.000000
 41
0.000000
 66
  1
  0
VERTEX
  8
gg1
 10
0.120000
 20
0.177500
  0
VERTEX
  8
gg1
 10
0.120000
 20
0.192500
  0
SEQEND
  8
gg1
  0
POLYLINE
  8
gg1
 62
1
 40
0.000000
 41
0.000000
 66
  1
  0
VERTEX
  8
gg1
 10
0.075000
 20
-0.460000
  0
VERTEX
  8
gg1
 10
0.075000
 20
-0.400000
  0
VERTEX
  8
gg1
 10
0.045000
 20
-0.430000
  0
VERTEX
  8
gg1
 10
0.085000
 20
-0.430000
  0
SEQEND
  8
gg1
  0
POLYLINE
  8
gg1
 62
1
 40
0.000000
 41
0.000000
 66
  1
  0
VERTEX
  8
gg1
 10
0.105000
 20
-0.410000
  0
VERTEX
  8
gg1
 10
0.115000
 20
-0.400000
  0
VERTEX
  8
gg1
 10
0.135000
 20
-0.400000
  0
VERTEX
  8
gg1
 10
0.145000
 20
-0.410000
  0
VERTEX
  8
gg1
 10
0.145000
 20
-0.450000
  0
VERTEX
  8
gg1
 10
0.135000
 20
-0.460000
  0
VERTEX
  8
gg1
 10
0.115000
 20
-0.460000
  0
VERTEX
  8
gg1
 10
0.105000
 20
-0.450000
  0
VERTEX
  8
gg1
 10
0.105000
 20
-0.410000
  0
SEQEND
  8
gg1
  0
POLYLINE
  8
gg1
 62
1
 40
0.000000
 41
0.000000
 66
  1
  0
VERTEX
  8
gg1
 10
0.165000
 20
-0.410000
  0
VERTEX
  8
gg1
 10
0.175000
 20
-0.400000
  0
VERTEX
  8
gg1
 10
0.195000
 20
-0.400000
  0
VERTEX
  8
gg1
 10
0.204900
 20
-0.410000
  0
VERTEX
  8
gg1
 10
0.204900
 20
-0.450000
  0
VERTEX
  8
gg1
 10
0.195000
 20
-0.460000
  0
VERTEX
  8
gg1
 10
0.175000
 20
-0.460000
  0
VERTEX
  8
gg1
 10
0.165000
 20
-0.450000
  0
VERTEX
  8
gg1
 10
0.165000
 20
-0.410000
  0
SEQEND
  8
gg1
  0
POLYLINE
  8
gg1
 62
1
 40
0.000000
 41
0.000000
 66
  1
  0
VERTEX
  8
gg1
 10
0.224900
 20
-0.460000
  0
VERTEX
  8
gg1
 10
0.224900
 20
-0.420000
  0
VERTEX
  8
gg1
 10
0.234900
 20
-0.420000
  0
VERTEX
  8
gg1
 10
0.244900
 20
-0.430000
  0
VERTEX
  8
gg1
 10
0.244900
 20
-0.460000
  0
VERTEX
  8
gg1
 10
0.244900
 20
-0.430000
  0
VERTEX
  8
gg1
 10
0.254900
 20
-0.420000
  0
VERTEX
  8
gg1
 10
0.264900
 20
-0.430000
  0
VERTEX
  8
gg1
 10
0.264900
 20
-0.460000
  0
SEQEND
  8
gg1
  0
POLYLINE
  8
gg1
 62
1
 40
0.000000
 41
0.000000
 66
  1
  0
VERTEX
  8
gg1
 10
0.284900
 20
-0.460000
  0
VERTEX
  8
gg1
 10
0.304900
 20
-0.460000
  0
VERTEX
  8
gg1
 10
0.294900
 20
-0.460000
  0
VERTEX
  8
gg1
 10
0.294900
 20
-0.420000
  0
VERTEX
  8
gg1
 10
0.284900
 20
-0.420000
  0
SEQEND
  8
gg1
  0
POLYLINE
  8
gg1
 62
1
 40
0.000000
 41
0.000000
 66
  1
  0
VERTEX
  8
gg1
 10
0.334900
 20
-0.460000
  0
VERTEX
  8
gg1
 10
0.354900
 20
-0.460000
  0
VERTEX
  8
gg1
 10
0.344900
 20
-0.460000
  0
VERTEX
  8
gg1
 10
0.344900
 20
-0.400000
  0
VERTEX
  8
gg1
 10
0.334900
 20
-0.400000
  0
SEQEND
  8
gg1
  0
POLYLINE
  8
gg1
 62
1
 40
0.000000
 41
0.000000
 66
  1
  0
VERTEX
  8
gg1
 10
-0.194000
 20
0.119000
  0
VERTEX
  8
gg1
 10
-0.194000
 20
0.079000
  0
VERTEX
  8
gg1
 10
-0.164000
 20
0.079000
  0
VERTEX
  8
gg1
 10
-0.174000
 20
0.099000
  0
VERTEX
  8
gg1
 10
-0.174000
 20
0.109000
  0
VERTEX
  8
gg1
 10
-0.164000
 20
0.119000
  0
VERTEX
  8
gg1
 10
-0.144000
 20
0.119000
  0
VERTEX
  8
gg1
 10
-0.134000
 20
0.109000
  0
VERTEX
  8
gg1
 10
-0.134000
 20
0.089000
  0
VERTEX
  8
gg1
 10
-0.144000
 20
0.079000
  0
SEQEND
  8
gg1
  0
POLYLINE
  8
gg1
 62
1
 40
0.000000
 41
0.000000
 66
  1
  0
VERTEX
  8
gg1
 10
-0.184000
 20
0.139000
  0
VERTEX
  8
gg1
 10
-0.194000
 20
0.149000
  0
VERTEX
  8
gg1
 10
-0.194000
 20
0.169000
  0
VERTEX
  8
gg1
 10
-0.184000
 20
0.179000
  0
VERTEX
  8
gg1
 10
-0.144000
 20
0.179000
  0
VERTEX
  8
gg1
 10
-0.134000
 20
0.169000
  0
VERTEX
  8
gg1
 10
-0.134000
 20
0.149000
  0
VERTEX
  8
gg1
 10
-0.144000
 20
0.139000
  0
VERTEX
  8
gg1
 10
-0.184000
 20
0.139000
  0
SEQEND
  8
gg1
  0
POLYLINE
  8
gg1
 62
1
 40
0.000000
 41
0.000000
 66
  1
  0
VERTEX
  8
gg1
 10
-0.184000
 20
0.199000
  0
VERTEX
  8
gg1
 10
-0.194000
 20
0.209000
  0
VERTEX
  8
gg1
 10
-0.194000
 20
0.229000
  0
VERTEX
  8
gg1
 10
-0.184000
 20
0.239000
  0
VERTEX
  8
gg1
 10
-0.144000
 20
0.239000
  0
VERTEX
  8
gg1
 10
-0.134000
 20
0.229000
  0
VERTEX
  8
gg1
 10
-0.134000
 20
0.209000
  0
VERTEX
  8
gg1
 10
-0.144000
 20
0.199000
  0
VERTEX
  8
gg1
 10
-0.184000
 20
0.199000
  0
SEQEND
  8
gg1
  0
POLYLINE
  8
gg1
 62
1
 40
0.000000
 41
0.000000
 66
  1
  0
VERTEX
  8
gg1
 10
-0.134000
 20
0.259000
  0
VERTEX
  8
gg1
 10
-0.174000
 20
0.259000
  0
VERTEX
  8
gg1
 10
-0.174000
 20
0.269000
  0
VERTEX
  8
gg1
 10
-0.164000
 20
0.279000
  0
VERTEX
  8
gg1
 10
-0.134000
 20
0.279000
  0
VERTEX
  8
gg1
 10
-0.164000
 20
0.279000
  0
VERTEX
  8
gg1
 10
-0.174000
 20
0.289000
  0
VERTEX
  8
gg1
 10
-0.164000
 20
0.299000
  0
VERTEX
  8
gg1
 10
-0.134000
 20
0.299000
  0
SEQEND
  8
gg1
  0
POLYLINE
  8
gg1
 62
1
 40
0.000000
 41
0.000000
 66
  1
  0
VERTEX
  8
gg1
 10
-0.134000
 20
0.319000
  0
VERTEX
  8
gg1
 10
-0.134000
 20
0.339000
  0
VERTEX
  8
gg1
 10
-0.134000
 20
0.329000
  0
VERTEX
  8
gg1
 10
-0.174000
 20
0.329000
  0
VERTEX
  8
gg1
 10
-0.174000
 20
0.319000
  0
SEQEND
  8
gg1
  0
POLYLINE
  8
gg1
 62
1
 40
0.000000
 41
0.000000
 66
  1
  0
VERTEX
  8
gg1
 10
-0.134000
 20
0.369000
  0
VERTEX
  8
gg1
 10
-0.134000
 20
0.388900
  0
VERTEX
  8
gg1
 10
-0.134000
 20
0.379000
  0
VERTEX
  8
gg1
 10
-0.194000
 20
0.379000
  0
VERTEX
  8
gg1
 10
-0.194000
 20
0.369000
  0
SEQEND
  8
gg1
  0
ENDSEC
  0
EOF
