  0
SECTION
  2
HEADER
  9
$EXTMIN
 10
7.373000
 20
14.861000
  9
$EXTMAX
 10
8.105000
 20
15.830000
  9
$LIMMIN
 10
7.373000
 20
14.861000
  9
$LIMMAX
 10
8.105000
 20
15.830000
  9
$FILLMODE
 70
  1
  0
ENDSEC
  0
SECTION
  2
TABLES
  0
TABLE
  2
LTYPE
 70
  1
  0
LTYPE
  2
CONTINUOUS
 70
 64
  3
Solid line
 72
 65
 73
  0
 40
0.0
  0
ENDTAB
  0
TABLE
  2
LAYER
 70
 1
  0
LAYER
  2
0
 70
  0
 62
7
  6
CONTINUOUS
  0
LAYER
  2
gg1
 70
  0
 62
1
  6
CONTINUOUS
  0
ENDTAB
  0
TABLE
  2
STYLE
 70
  1
  0
STYLE
  2
STANDARD
 70
  0
 40
0.0
 41
1.0
 50
0.0
 71
  0
 42
0.2
  3
txt
  4

  0
ENDTAB
  0
ENDSEC
  0
SECTION
  2
BLOCKS
  0
BLOCK
  8
0
  2
D10
 70
64
 10
0.0
 20
0.0
  3
D10
  0
CIRCLE
  8
0
 10
0.000000
 20
0.000000
 40
0.002500
 0
ENDBLK
  8
0
  0
BLOCK
  8
0
  2
D11
 70
64
 10
0.0
 20
0.0
  3
D11
  0
CIRCLE
  8
0
 10
0.000000
 20
0.000000
 40
0.005000
 0
ENDBLK
  8
0
  0
BLOCK
  8
0
  2
D12
 70
64
 10
0.0
 20
0.0
  3
D12
  0
CIRCLE
  8
0
 10
0.000000
 20
0.000000
 40
0.003000
 0
ENDBLK
  8
0
  0
ENDSEC
  0
SECTION
  2
ENTITIES
  0
POLYLINE
  8
gg1
 62
1
 40
0.000000
 41
0.000000
 66
  1
  0
VERTEX
  8
gg1
 10
7.500000
 20
15.000000
  0
VERTEX
  8
gg1
 10
7.500000
 20
15.825000
  0
VERTEX
  8
gg1
 10
8.100000
 20
15.825000
  0
SEQEND
  8
gg1
  0
POLYLINE
  8
gg1
 62
1
 40
0.000000
 41
0.000000
 66
  1
  0
VERTEX
  8
gg1
 10
8.100000
 20
15.000000
  0
VERTEX
  8
gg1
 10
8.100000
 20
15.825000
  0
SEQEND
  8
gg1
  0
POLYLINE
  8
gg1
 62
1
 40
0.000000
 41
0.000000
 66
  1
  0
VERTEX
  8
gg1
 10
7.500000
 20
15.000000
  0
VERTEX
  8
gg1
 10
8.100000
 20
15.000000
  0
SEQEND
  8
gg1
  0
POLYLINE
  8
gg1
 62
1
 40
0.000000
 41
0.000000
 66
  1
  0
VERTEX
  8
gg1
 10
8.030000
 20
15.550000
  0
VERTEX
  8
gg1
 10
8.070000
 20
15.550000
  0
SEQEND
  8
gg1
  0
POLYLINE
  8
gg1
 62
1
 40
0.000000
 41
0.000000
 66
  1
  0
VERTEX
  8
gg1
 10
8.050000
 20
15.530000
  0
VERTEX
  8
gg1
 10
8.050000
 20
15.570000
  0
SEQEND
  8
gg1
  0
POLYLINE
  8
gg1
 62
1
 40
0.000000
 41
0.000000
 66
  1
  0
VERTEX
  8
gg1
 10
8.030000
 20
15.450000
  0
VERTEX
  8
gg1
 10
8.070000
 20
15.450000
  0
SEQEND
  8
gg1
  0
POLYLINE
  8
gg1
 62
1
 40
0.000000
 41
0.000000
 66
  1
  0
VERTEX
  8
gg1
 10
8.050000
 20
15.430000
  0
VERTEX
  8
gg1
 10
8.050000
 20
15.470000
  0
SEQEND
  8
gg1
  0
POLYLINE
  8
gg1
 62
1
 40
0.000000
 41
0.000000
 66
  1
  0
VERTEX
  8
gg1
 10
8.030000
 20
15.050000
  0
VERTEX
  8
gg1
 10
8.070000
 20
15.050000
  0
SEQEND
  8
gg1
  0
POLYLINE
  8
gg1
 62
1
 40
0.000000
 41
0.000000
 66
  1
  0
VERTEX
  8
gg1
 10
8.050000
 20
15.030000
  0
VERTEX
  8
gg1
 10
8.050000
 20
15.070000
  0
SEQEND
  8
gg1
  0
POLYLINE
  8
gg1
 62
1
 40
0.000000
 41
0.000000
 66
  1
  0
VERTEX
  8
gg1
 10
8.030000
 20
15.150000
  0
VERTEX
  8
gg1
 10
8.070000
 20
15.150000
  0
SEQEND
  8
gg1
  0
POLYLINE
  8
gg1
 62
1
 40
0.000000
 41
0.000000
 66
  1
  0
VERTEX
  8
gg1
 10
8.050000
 20
15.130000
  0
VERTEX
  8
gg1
 10
8.050000
 20
15.170000
  0
SEQEND
  8
gg1
  0
POLYLINE
  8
gg1
 62
1
 40
0.000000
 41
0.000000
 66
  1
  0
VERTEX
  8
gg1
 10
8.030000
 20
15.250000
  0
VERTEX
  8
gg1
 10
8.070000
 20
15.250000
  0
SEQEND
  8
gg1
  0
POLYLINE
  8
gg1
 62
1
 40
0.000000
 41
0.000000
 66
  1
  0
VERTEX
  8
gg1
 10
8.050000
 20
15.230000
  0
VERTEX
  8
gg1
 10
8.050000
 20
15.270000
  0
SEQEND
  8
gg1
  0
POLYLINE
  8
gg1
 62
1
 40
0.000000
 41
0.000000
 66
  1
  0
VERTEX
  8
gg1
 10
8.030000
 20
15.350000
  0
VERTEX
  8
gg1
 10
8.070000
 20
15.350000
  0
SEQEND
  8
gg1
  0
POLYLINE
  8
gg1
 62
1
 40
0.000000
 41
0.000000
 66
  1
  0
VERTEX
  8
gg1
 10
8.050000
 20
15.330000
  0
VERTEX
  8
gg1
 10
8.050000
 20
15.370000
  0
SEQEND
  8
gg1
  0
POLYLINE
  8
gg1
 62
1
 40
0.000000
 41
0.000000
 66
  1
  0
VERTEX
  8
gg1
 10
7.530000
 20
15.050000
  0
VERTEX
  8
gg1
 10
7.570000
 20
15.050000
  0
SEQEND
  8
gg1
  0
POLYLINE
  8
gg1
 62
1
 40
0.000000
 41
0.000000
 66
  1
  0
VERTEX
  8
gg1
 10
7.550000
 20
15.030000
  0
VERTEX
  8
gg1
 10
7.550000
 20
15.070000
  0
SEQEND
  8
gg1
  0
POLYLINE
  8
gg1
 62
1
 40
0.000000
 41
0.000000
 66
  1
  0
VERTEX
  8
gg1
 10
7.530000
 20
15.150000
  0
VERTEX
  8
gg1
 10
7.570000
 20
15.150000
  0
SEQEND
  8
gg1
  0
POLYLINE
  8
gg1
 62
1
 40
0.000000
 41
0.000000
 66
  1
  0
VERTEX
  8
gg1
 10
7.550000
 20
15.130000
  0
VERTEX
  8
gg1
 10
7.550000
 20
15.170000
  0
SEQEND
  8
gg1
  0
POLYLINE
  8
gg1
 62
1
 40
0.000000
 41
0.000000
 66
  1
  0
VERTEX
  8
gg1
 10
7.530000
 20
15.250000
  0
VERTEX
  8
gg1
 10
7.570000
 20
15.250000
  0
SEQEND
  8
gg1
  0
POLYLINE
  8
gg1
 62
1
 40
0.000000
 41
0.000000
 66
  1
  0
VERTEX
  8
gg1
 10
7.550000
 20
15.230000
  0
VERTEX
  8
gg1
 10
7.550000
 20
15.270000
  0
SEQEND
  8
gg1
  0
POLYLINE
  8
gg1
 62
1
 40
0.000000
 41
0.000000
 66
  1
  0
VERTEX
  8
gg1
 10
7.530000
 20
15.350000
  0
VERTEX
  8
gg1
 10
7.570000
 20
15.350000
  0
SEQEND
  8
gg1
  0
POLYLINE
  8
gg1
 62
1
 40
0.000000
 41
0.000000
 66
  1
  0
VERTEX
  8
gg1
 10
7.550000
 20
15.330000
  0
VERTEX
  8
gg1
 10
7.550000
 20
15.370000
  0
SEQEND
  8
gg1
  0
POLYLINE
  8
gg1
 62
1
 40
0.000000
 41
0.000000
 66
  1
  0
VERTEX
  8
gg1
 10
7.530000
 20
15.550000
  0
VERTEX
  8
gg1
 10
7.570000
 20
15.550000
  0
SEQEND
  8
gg1
  0
POLYLINE
  8
gg1
 62
1
 40
0.000000
 41
0.000000
 66
  1
  0
VERTEX
  8
gg1
 10
7.550000
 20
15.530000
  0
VERTEX
  8
gg1
 10
7.550000
 20
15.570000
  0
SEQEND
  8
gg1
  0
POLYLINE
  8
gg1
 62
1
 40
0.000000
 41
0.000000
 66
  1
  0
VERTEX
  8
gg1
 10
7.530000
 20
15.450000
  0
VERTEX
  8
gg1
 10
7.570000
 20
15.450000
  0
SEQEND
  8
gg1
  0
POLYLINE
  8
gg1
 62
1
 40
0.000000
 41
0.000000
 66
  1
  0
VERTEX
  8
gg1
 10
7.550000
 20
15.430000
  0
VERTEX
  8
gg1
 10
7.550000
 20
15.470000
  0
SEQEND
  8
gg1
  0
POLYLINE
  8
gg1
 62
1
 40
0.000000
 41
0.000000
 66
  1
  0
VERTEX
  8
gg1
 10
7.697790
 20
15.745000
  0
VERTEX
  8
gg1
 10
7.757790
 20
15.745000
  0
SEQEND
  8
gg1
  0
POLYLINE
  8
gg1
 62
1
 40
0.000000
 41
0.000000
 66
  1
  0
VERTEX
  8
gg1
 10
7.727800
 20
15.715000
  0
VERTEX
  8
gg1
 10
7.727800
 20
15.775000
  0
SEQEND
  8
gg1
  0
POLYLINE
  8
gg1
 62
1
 40
0.000000
 41
0.000000
 66
  1
  0
VERTEX
  8
gg1
 10
7.560000
 20
15.745000
  0
VERTEX
  8
gg1
 10
7.620000
 20
15.745000
  0
SEQEND
  8
gg1
  0
POLYLINE
  8
gg1
 62
1
 40
0.000000
 41
0.000000
 66
  1
  0
VERTEX
  8
gg1
 10
7.590000
 20
15.715000
  0
VERTEX
  8
gg1
 10
7.590000
 20
15.775000
  0
SEQEND
  8
gg1
  0
POLYLINE
  8
gg1
 62
1
 40
0.000000
 41
0.000000
 66
  1
  0
VERTEX
  8
gg1
 10
7.977800
 20
15.745000
  0
VERTEX
  8
gg1
 10
8.037800
 20
15.745000
  0
SEQEND
  8
gg1
  0
POLYLINE
  8
gg1
 62
1
 40
0.000000
 41
0.000000
 66
  1
  0
VERTEX
  8
gg1
 10
8.007800
 20
15.715000
  0
VERTEX
  8
gg1
 10
8.007800
 20
15.775000
  0
SEQEND
  8
gg1
  0
POLYLINE
  8
gg1
 62
1
 40
0.000000
 41
0.000000
 66
  1
  0
VERTEX
  8
gg1
 10
7.840000
 20
15.745000
  0
VERTEX
  8
gg1
 10
7.900000
 20
15.745000
  0
SEQEND
  8
gg1
  0
POLYLINE
  8
gg1
 62
1
 40
0.000000
 41
0.000000
 66
  1
  0
VERTEX
  8
gg1
 10
7.870000
 20
15.715000
  0
VERTEX
  8
gg1
 10
7.870000
 20
15.775000
  0
SEQEND
  8
gg1
  0
POLYLINE
  8
gg1
 62
1
 40
0.000000
 41
0.000000
 66
  1
  0
VERTEX
  8
gg1
 10
7.835000
 20
15.275000
  0
VERTEX
  8
gg1
 10
7.855000
 20
15.275000
  0
SEQEND
  8
gg1
  0
POLYLINE
  8
gg1
 62
1
 40
0.000000
 41
0.000000
 66
  1
  0
VERTEX
  8
gg1
 10
7.845000
 20
15.265000
  0
VERTEX
  8
gg1
 10
7.845000
 20
15.285000
  0
SEQEND
  8
gg1
  0
POLYLINE
  8
gg1
 62
1
 40
0.000000
 41
0.000000
 66
  1
  0
VERTEX
  8
gg1
 10
7.935000
 20
15.435000
  0
VERTEX
  8
gg1
 10
7.955000
 20
15.435000
  0
SEQEND
  8
gg1
  0
POLYLINE
  8
gg1
 62
1
 40
0.000000
 41
0.000000
 66
  1
  0
VERTEX
  8
gg1
 10
7.945000
 20
15.425000
  0
VERTEX
  8
gg1
 10
7.945000
 20
15.445000
  0
SEQEND
  8
gg1
  0
POLYLINE
  8
gg1
 62
1
 40
0.000000
 41
0.000000
 66
  1
  0
VERTEX
  8
gg1
 10
7.500000
 20
14.900000
  0
VERTEX
  8
gg1
 10
7.560000
 20
14.920000
  0
SEQEND
  8
gg1
  0
POLYLINE
  8
gg1
 62
1
 40
0.000000
 41
0.000000
 66
  1
  0
VERTEX
  8
gg1
 10
7.500000
 20
14.900000
  0
VERTEX
  8
gg1
 10
7.560000
 20
14.880000
  0
SEQEND
  8
gg1
  0
POLYLINE
  8
gg1
 62
1
 40
0.000000
 41
0.000000
 66
  1
  0
VERTEX
  8
gg1
 10
8.040000
 20
14.880000
  0
VERTEX
  8
gg1
 10
8.100000
 20
14.900000
  0
SEQEND
  8
gg1
  0
POLYLINE
  8
gg1
 62
1
 40
0.000000
 41
0.000000
 66
  1
  0
VERTEX
  8
gg1
 10
8.040000
 20
14.920000
  0
VERTEX
  8
gg1
 10
8.100000
 20
14.900000
  0
SEQEND
  8
gg1
  0
POLYLINE
  8
gg1
 62
1
 40
0.000000
 41
0.000000
 66
  1
  0
VERTEX
  8
gg1
 10
7.500000
 20
14.900000
  0
VERTEX
  8
gg1
 10
7.613050
 20
14.900000
  0
SEQEND
  8
gg1
  0
POLYLINE
  8
gg1
 62
1
 40
0.000000
 41
0.000000
 66
  1
  0
VERTEX
  8
gg1
 10
7.954950
 20
14.900000
  0
VERTEX
  8
gg1
 10
8.100000
 20
14.900000
  0
SEQEND
  8
gg1
  0
POLYLINE
  8
gg1
 62
1
 40
0.000000
 41
0.000000
 66
  1
  0
VERTEX
  8
gg1
 10
7.500000
 20
14.890000
  0
VERTEX
  8
gg1
 10
7.500000
 20
14.990000
  0
SEQEND
  8
gg1
  0
POLYLINE
  8
gg1
 62
1
 40
0.000000
 41
0.000000
 66
  1
  0
VERTEX
  8
gg1
 10
8.100000
 20
14.890000
  0
VERTEX
  8
gg1
 10
8.100000
 20
14.990000
  0
SEQEND
  8
gg1
  0
POLYLINE
  8
gg1
 62
1
 40
0.000000
 41
0.000000
 66
  1
  0
VERTEX
  8
gg1
 10
7.400000
 20
15.825000
  0
VERTEX
  8
gg1
 10
7.420000
 20
15.765000
  0
SEQEND
  8
gg1
  0
POLYLINE
  8
gg1
 62
1
 40
0.000000
 41
0.000000
 66
  1
  0
VERTEX
  8
gg1
 10
7.380000
 20
15.765000
  0
VERTEX
  8
gg1
 10
7.400000
 20
15.825000
  0
SEQEND
  8
gg1
  0
POLYLINE
  8
gg1
 62
1
 40
0.000000
 41
0.000000
 66
  1
  0
VERTEX
  8
gg1
 10
7.380000
 20
15.060000
  0
VERTEX
  8
gg1
 10
7.400000
 20
15.000000
  0
VERTEX
  8
gg1
 10
7.420000
 20
15.060000
  0
SEQEND
  8
gg1
  0
POLYLINE
  8
gg1
 62
1
 40
0.000000
 41
0.000000
 66
  1
  0
VERTEX
  8
gg1
 10
7.400000
 20
15.567450
  0
VERTEX
  8
gg1
 10
7.400000
 20
15.825000
  0
SEQEND
  8
gg1
  0
POLYLINE
  8
gg1
 62
1
 40
0.000000
 41
0.000000
 66
  1
  0
VERTEX
  8
gg1
 10
7.400000
 20
15.000000
  0
VERTEX
  8
gg1
 10
7.400000
 20
15.225550
  0
SEQEND
  8
gg1
  0
POLYLINE
  8
gg1
 62
1
 40
0.000000
 41
0.000000
 66
  1
  0
VERTEX
  8
gg1
 10
7.390000
 20
15.825000
  0
VERTEX
  8
gg1
 10
7.490000
 20
15.825000
  0
SEQEND
  8
gg1
  0
POLYLINE
  8
gg1
 62
1
 40
0.000000
 41
0.000000
 66
  1
  0
VERTEX
  8
gg1
 10
7.390000
 20
15.000000
  0
VERTEX
  8
gg1
 10
7.490000
 20
15.000000
  0
SEQEND
  8
gg1
  0
POLYLINE
  8
gg1
 62
1
 40
0.000000
 41
0.000000
 66
  1
  0
VERTEX
  8
gg1
 10
7.669040
 20
14.923990
  0
VERTEX
  8
gg1
 10
7.649040
 20
14.913990
  0
VERTEX
  8
gg1
 10
7.629050
 20
14.894000
  0
VERTEX
  8
gg1
 10
7.629050
 20
14.874010
  0
VERTEX
  8
gg1
 10
7.639050
 20
14.864010
  0
VERTEX
  8
gg1
 10
7.659040
 20
14.864010
  0
VERTEX
  8
gg1
 10
7.669040
 20
14.874010
  0
VERTEX
  8
gg1
 10
7.669040
 20
14.884000
  0
VERTEX
  8
gg1
 10
7.659040
 20
14.894000
  0
VERTEX
  8
gg1
 10
7.629050
 20
14.894000
  0
SEQEND
  8
gg1
  0
POLYLINE
  8
gg1
 62
1
 40
0.000000
 41
0.000000
 66
  1
  0
VERTEX
  8
gg1
 10
7.689030
 20
14.913990
  0
VERTEX
  8
gg1
 10
7.699030
 20
14.923990
  0
VERTEX
  8
gg1
 10
7.719020
 20
14.923990
  0
VERTEX
  8
gg1
 10
7.729020
 20
14.913990
  0
VERTEX
  8
gg1
 10
7.729020
 20
14.874010
  0
VERTEX
  8
gg1
 10
7.719020
 20
14.864010
  0
VERTEX
  8
gg1
 10
7.699030
 20
14.864010
  0
VERTEX
  8
gg1
 10
7.689030
 20
14.874010
  0
VERTEX
  8
gg1
 10
7.689030
 20
14.913990
  0
SEQEND
  8
gg1
  0
POLYLINE
  8
gg1
 62
1
 40
0.000000
 41
0.000000
 66
  1
  0
VERTEX
  8
gg1
 10
7.749010
 20
14.913990
  0
VERTEX
  8
gg1
 10
7.759010
 20
14.923990
  0
VERTEX
  8
gg1
 10
7.779000
 20
14.923990
  0
VERTEX
  8
gg1
 10
7.789000
 20
14.913990
  0
VERTEX
  8
gg1
 10
7.789000
 20
14.874010
  0
VERTEX
  8
gg1
 10
7.779000
 20
14.864010
  0
VERTEX
  8
gg1
 10
7.759010
 20
14.864010
  0
VERTEX
  8
gg1
 10
7.749010
 20
14.874010
  0
VERTEX
  8
gg1
 10
7.749010
 20
14.913990
  0
SEQEND
  8
gg1
  0
POLYLINE
  8
gg1
 62
1
 40
0.000000
 41
0.000000
 66
  1
  0
VERTEX
  8
gg1
 10
7.808990
 20
14.864010
  0
VERTEX
  8
gg1
 10
7.808990
 20
14.904000
  0
VERTEX
  8
gg1
 10
7.818990
 20
14.904000
  0
VERTEX
  8
gg1
 10
7.828990
 20
14.894000
  0
VERTEX
  8
gg1
 10
7.828990
 20
14.864010
  0
VERTEX
  8
gg1
 10
7.828990
 20
14.894000
  0
VERTEX
  8
gg1
 10
7.838980
 20
14.904000
  0
VERTEX
  8
gg1
 10
7.848980
 20
14.894000
  0
VERTEX
  8
gg1
 10
7.848980
 20
14.864010
  0
SEQEND
  8
gg1
  0
POLYLINE
  8
gg1
 62
1
 40
0.000000
 41
0.000000
 66
  1
  0
VERTEX
  8
gg1
 10
7.868970
 20
14.864010
  0
VERTEX
  8
gg1
 10
7.888970
 20
14.864010
  0
VERTEX
  8
gg1
 10
7.878970
 20
14.864010
  0
VERTEX
  8
gg1
 10
7.878970
 20
14.904000
  0
VERTEX
  8
gg1
 10
7.868970
 20
14.904000
  0
SEQEND
  8
gg1
  0
POLYLINE
  8
gg1
 62
1
 40
0.000000
 41
0.000000
 66
  1
  0
VERTEX
  8
gg1
 10
7.918960
 20
14.864010
  0
VERTEX
  8
gg1
 10
7.938950
 20
14.864010
  0
VERTEX
  8
gg1
 10
7.928950
 20
14.864010
  0
VERTEX
  8
gg1
 10
7.928950
 20
14.923990
  0
VERTEX
  8
gg1
 10
7.918960
 20
14.923990
  0
SEQEND
  8
gg1
  0
POLYLINE
  8
gg1
 62
1
 40
0.000000
 41
0.000000
 66
  1
  0
VERTEX
  8
gg1
 10
7.386010
 20
15.241550
  0
VERTEX
  8
gg1
 10
7.376010
 20
15.251550
  0
VERTEX
  8
gg1
 10
7.376010
 20
15.271540
  0
VERTEX
  8
gg1
 10
7.386010
 20
15.281540
  0
VERTEX
  8
gg1
 10
7.396000
 20
15.281540
  0
VERTEX
  8
gg1
 10
7.406000
 20
15.271540
  0
VERTEX
  8
gg1
 10
7.416000
 20
15.281540
  0
VERTEX
  8
gg1
 10
7.425990
 20
15.281540
  0
VERTEX
  8
gg1
 10
7.435990
 20
15.271540
  0
VERTEX
  8
gg1
 10
7.435990
 20
15.251550
  0
VERTEX
  8
gg1
 10
7.425990
 20
15.241550
  0
VERTEX
  8
gg1
 10
7.416000
 20
15.241550
  0
VERTEX
  8
gg1
 10
7.406000
 20
15.251550
  0
VERTEX
  8
gg1
 10
7.396000
 20
15.241550
  0
VERTEX
  8
gg1
 10
7.386010
 20
15.241550
  0
SEQEND
  8
gg1
  0
POLYLINE
  8
gg1
 62
1
 40
0.000000
 41
0.000000
 66
  1
  0
VERTEX
  8
gg1
 10
7.406000
 20
15.251550
  0
VERTEX
  8
gg1
 10
7.406000
 20
15.271540
  0
SEQEND
  8
gg1
  0
POLYLINE
  8
gg1
 62
1
 40
0.000000
 41
0.000000
 66
  1
  0
VERTEX
  8
gg1
 10
7.435990
 20
15.341520
  0
VERTEX
  8
gg1
 10
7.435990
 20
15.301530
  0
VERTEX
  8
gg1
 10
7.396000
 20
15.341520
  0
VERTEX
  8
gg1
 10
7.386010
 20
15.341520
  0
VERTEX
  8
gg1
 10
7.376010
 20
15.331520
  0
VERTEX
  8
gg1
 10
7.376010
 20
15.311530
  0
VERTEX
  8
gg1
 10
7.386010
 20
15.301530
  0
SEQEND
  8
gg1
  0
POLYLINE
  8
gg1
 62
1
 40
0.000000
 41
0.000000
 66
  1
  0
VERTEX
  8
gg1
 10
7.376010
 20
15.401500
  0
VERTEX
  8
gg1
 10
7.376010
 20
15.361510
  0
VERTEX
  8
gg1
 10
7.406000
 20
15.361510
  0
VERTEX
  8
gg1
 10
7.396000
 20
15.381510
  0
VERTEX
  8
gg1
 10
7.396000
 20
15.391500
  0
VERTEX
  8
gg1
 10
7.406000
 20
15.401500
  0
VERTEX
  8
gg1
 10
7.425990
 20
15.401500
  0
VERTEX
  8
gg1
 10
7.435990
 20
15.391500
  0
VERTEX
  8
gg1
 10
7.435990
 20
15.371510
  0
VERTEX
  8
gg1
 10
7.425990
 20
15.361510
  0
SEQEND
  8
gg1
  0
POLYLINE
  8
gg1
 62
1
 40
0.000000
 41
0.000000
 66
  1
  0
VERTEX
  8
gg1
 10
7.435990
 20
15.421490
  0
VERTEX
  8
gg1
 10
7.396000
 20
15.421490
  0
VERTEX
  8
gg1
 10
7.396000
 20
15.431490
  0
VERTEX
  8
gg1
 10
7.406000
 20
15.441490
  0
VERTEX
  8
gg1
 10
7.435990
 20
15.441490
  0
VERTEX
  8
gg1
 10
7.406000
 20
15.441490
  0
VERTEX
  8
gg1
 10
7.396000
 20
15.451480
  0
VERTEX
  8
gg1
 10
7.406000
 20
15.461480
  0
VERTEX
  8
gg1
 10
7.435990
 20
15.461480
  0
SEQEND
  8
gg1
  0
POLYLINE
  8
gg1
 62
1
 40
0.000000
 41
0.000000
 66
  1
  0
VERTEX
  8
gg1
 10
7.435990
 20
15.481470
  0
VERTEX
  8
gg1
 10
7.435990
 20
15.501470
  0
VERTEX
  8
gg1
 10
7.435990
 20
15.491470
  0
VERTEX
  8
gg1
 10
7.396000
 20
15.491470
  0
VERTEX
  8
gg1
 10
7.396000
 20
15.481470
  0
SEQEND
  8
gg1
  0
POLYLINE
  8
gg1
 62
1
 40
0.000000
 41
0.000000
 66
  1
  0
VERTEX
  8
gg1
 10
7.435990
 20
15.531460
  0
VERTEX
  8
gg1
 10
7.435990
 20
15.551450
  0
VERTEX
  8
gg1
 10
7.435990
 20
15.541450
  0
VERTEX
  8
gg1
 10
7.376010
 20
15.541450
  0
VERTEX
  8
gg1
 10
7.376010
 20
15.531460
  0
SEQEND
  8
gg1
  0
ENDSEC
  0
EOF
